Stone Temple Pilots - Hazy Daze tab

Stone Temple Pilots - Hazy Daze
From the 'Stone Temple Pilots' 2010 Album
Standard Tuning
tabbed by jjhand

A cool song with Fuzz Distortion and pentatonic guitar licks. 
Hope you like! Please rate/comment.


Intro/Main Riff - with heavy fuzz distortion
e|-----------------------------|-----------------------------|
B|-----------------------------|-----------------------------|
G|-----------------------------|------------2---4---4p2---2--|
D|------------2---4---4p2---2--|-2----4--/4---4---4-----4----|
A|-2----4--/4---4---4-----4----|-0----2----------------------| play 4x
E|-0----2----------------------|-----------------------------|



Verse- play 4x, but add on ending on 4th time      Ending:
e|------------------------|------------------|   ------------------|
B|------------------------|------------------|   ---2---2---2~-----|
G|------------------------|------------------|   ---2---2---2~-----|
D|------------------------|------------------|   -----4---4--------|
A|-4---2-4----------2-2-2-|-4---2-4----------|   ------------------|
E|-2---0-2----------0-0-0-|-2---0-2----------|   ------------------|

        "I'm freely standing         On my own"
        "Or am I falling        In a river cold?"
"Those friends always ask me     Saying "How you been?"
"Well I've seen somber days"


Prechorus - 6 beats per bar, play 2x

   1    2     3    4    5       6
e|-----------------------------------|-----------------------------------|
B|----------------------2---2---2----|----------------------2---2---2----|
G|-4----4--4--4----4----2---2---2----|-4----4--4--4----4----2---2---2----|
D|-4----4--4--4----4------4---4------|-4----4--4--4----4------4---4------|
A|-2----2--2--2----2-----------------|-2----2--2--2----2-----------------|
E|-----------------------------------|-----------------------------------|
              "Am I mistaken?"
              "Could you be sitting there lonely too?"


Chorus - Play Main Riff 4x

Lyrics:
"He was a man Who didn't want me anymore
He never, never, never 'round
How much did you get for selling out my name?
Still won't forget those hazy days
Yeah"




Play Verse Again, with Lyrics:

"It's in the nighttime When I'm feeling old
 Am I lonely? I watched you go
 My friends always wonder, ask "How you been?"
 Well I've seen better days"



Play Prechorus & Chorus Again with same lyrics



Pre-solo Rhythm - play 2x
e|-----------------------|
B|-----------------------|
G|-----------------------|
D|-----------------------|
A|-4-----4----4-----4----|
E|-2---0-2----2---0-2----|


Solo
e|----------------------------|------------------|-----------7b9__----7---|
B|-5--------------------------|-2----------------|---------7-------10---7-|
G|---b6r4--2__b3___---2---4---|---2-------2b3___-|-9___b11----------------|
D|------------------4---4---4-|-----4~~----------|------------------------|
A|----------------------------|------------------|------------------------|
E|----------------------------|------------------|------------------------|

e|------------------------|--------------------------|
B|-10-10~~---7---7b10-----|-14b17~~~--14b17-14b17~---|
G|-------------9----------|--------------------------|
D|------------------------|--------------------------|
A|------------------------|--------------------------|
E|------------------------|--------------------------|

e|--------------------------------------|------14-----------16b17r16--|
B|-/17-14-------------------------------|--------17-17b19-------------|
G|--------16-14-16-14-------16b-14------|-16b18-----------------------|
D|--------------------16-14--------16~~-|-----------------------------|
A|--------------------------------------|-----------------------------|
E|--------------------------------------|-----------------------------|

e|---------------------------------|-14-------------------|
B|---14-------------------------14-|-----17b19~~~~~~------|
G|-17--17p16-14--16--14qb--14h16---|----------------------|
D|-------------16--16--------------|----------------------|
A|---------------------------------|----------------------|
E|---------------------------------|----------------------|


Solo Rhythm Part - play 4x
e|-------------------|------------------------|
B|-------------------|------------------------|
G|-------------------|------------------------|
D|-4--------4--------|------------------------|
A|-4--------3--------|-2-4--2-4-4-2--4--------|
E|-------------------|-0-2--0-2-2-0--2--------|



(2:40) Play Chorus again, 4x through main riff

on 2nd time through, Lead plays a couple notes after lyrics "never, never round" 
e|------------------|
B|------------------|
G|-16qb--14~~-------|
D|------------------|
A|------------------|
E|------------------|

To end the song, the rest of the Chorus is the same


KEY
| /  slide up
| \  slide down
| h  hammer-on
| p  pull-off
| b  bend string
| r  release bend
| qb quarter bend, blues style slight bend 
| ~  vibrato
| +  harmonic
| x  Mute note
Tap to rate this tab
 
# A B C D E F G H I J K L M N O P Q R S T U V W X Y Z