Song name
# A B C D E F G H I J K L M N O P Q R S T U V W X Y Z

Stone Temple Pilots - Between The Lines tab

Stone Temple Pilots - "Between The Lines"
New single from Self-Titled 2010 Album
Main Guitar - Standard Tuning, 
Overdub in Drop-D Tuning (after solo)
tabbed by jjhand


This uses fuzz distortion like 'Big Bang Baby'. I tried comparing to their 
youtube concert video from 3/19/10. Some parts sound like a lower tuned
guitar, but bass plays melody in the main riffs giving a 'fat' sound.

Please rate/comment! Thanks


Intro - play 2x
e|------------------------|
B|------------------------|
G|-5--5-----5--5-----5----|
D|-5--5-----5--5-----5----|
A|-3--3-----3--3-----3----|
E|-------3--------3-------|



Verse - play 8x
e|------------------------|
B|------------------------|
G|------------------------|
D|-0----0--0--0--5--3--0--|
A|-5----5--5--5--5--5--5--|
E|------------------------|

"Lovely disguise, read between the lines
You rock the magic plane with no abbreviation
Free, what you sell what you bought
But there ainít no magic pen to get back what you lost"






PreChorus - play 3x         * there is some effect used 
                            but I'm not sure what!

e|-------------------------|------------------------|
B|-------------------------|------3*----3*----------|
G|-------------------------|------0-----0-----------|
D|-5--5--5--5--5--5--5--4--|-4----4-----4-----------|
A|-3--3--3--3--3--3--3-----|-5----5-----5-----------|
E|-------------------------|------------------------|

"I like it when we talk about love
 I like it when you talk about love
 You always were my favorite drug"




Prechorus End Riff
e|------------------------|
B|------------------------|
G|-5--5-----5--5-----5----|
D|-5--5-----5--5-----5----|
A|-3--3-----3--3-----3----|
E|-------3--------3-----3-|
  "Even when we used to take ..."






Chorus - play 4x, repeat lyrics too
   D5            G5         F5            C5
e|------------------------|------------------------|
B|---------------8--8-----|-6----6-----------------|
G|-7----7--------7--7-----|-5----5--------5--5-----|
D|-7----7--0--0--5--5--0--|-3----3--0--0--5--5-----|
A|-5----5--0--0--5--5--0--|-3----3--0--0--3--3-----|
E|------------------------|---------------------3--|

"Drugs...                  Even when we used to take"



Play Prechorus End Riff 2x





Verse 2 - Same as verse 1, but 2nd guitar adds a short clean lick

(0:47, 0:55, etc.)
e|----------------------|
B|---------0------------|
G|------5---------------|
D|-0--------------------|
A|----------let ring----|
E|----------------------|

Lyrics:
"Penguins dont fly Crocodile sunday smile
Really like to fish but dont like superficial people
Shoe store heard it all before
From pearly whites to pearly gates What do we have to argue about"






Play PreChorus Again

Play Chorus again







(1:31) Bridge - play 4x
e|-------------------------|------------------------|
B|-10---10--x--x-----------|---------------8--8-----|
G|-9----9---x--x--7--7\5---|-5----5--x--x--7--7-----|
D|-7----7---x--x--7--7\5---|-5----5--x--x--5--5-----|
A|-0----0---------5--5\3---|-3----3--x--x--------0--|
E|-------------------------|------------------------|






(1:45) Solo (with rhythm guitar part from Chorus, chord changes are marked)

   D       G        F       C        etc.
e|--------10--------10-----------10-|------------10-----------10------------|
B|-10--------13b15----13p10-13b15---|-13p10-13b15--13p10-13b15--13p10-13b15-|
G|-12b14----------------------------|---------------------------------------|
D|----------------------------------|----speed up the descending notes------|
A|----------------------------------|---------------------------------------|
E|----------------------------------|---------------------------------------|


e|-10b13---------------------------------|------------------------|
B|---------12h13p12-10h12p10-------------|------------------------|
G|--------------------------12p10---12---|-10b12r-10~-------------|
D|-------------------------------12---12-|------------------------|
A|---------------------------------------|------------------------|
E|---------------------------------------|------------------------|


e|------------------------------------|---------------------|
B|---13\12--12\11--10\8-6h8p6\3-5p3\1-|-3~---------1tr3-1-0-|
G|-14-----13-----12-------------------|---------------------|
D|------------------------------------|---------------------|
A|------------------------------------|---------------------|
E|------------------------------------|---------------------|

                                                    C
e|-------------------|---13--15b17---13-15--13-13-|-------------------17b20-|
B|-------------------|-13--13-------------15------|-15p13-15~~b18---15------|
G|-2p0-2b4~~~~r2-----|----------------------------|-------------------------|
D|-------------------|----------------------------|-------------------------|
A|-------------------|----------------------------|-------------------------|
E|-------------------|----------------------------|-------------------------|

   C
e|-17b19-17-15-13-------13--13b15-|---------------------|
B|---------------15-13------------|-15~~~~~-------------|
G|--------------------------------|---------------------|
D|--------------------------------|---------------------|
A|--------------------------------|---------------------|
E|--------------------------------|---------------------|




Overlapping end of solo - Overdub Guitar:
e|------------------------|--------------------------|
B|------------------------|--------------------------|
G|------------------------|--------------------------|
D|------------------------|--------------------------| played 2x
A|------------------------|--------------------------|
D|-0----3--0--3--5--3--0--|-0----3--0--3--5--3--(3)--|




Play Verse riff 4x

Play Prechorus again

Play Chorus again




Ending 
e|------------------------|------------------------|----------|
B|------------------------|------------------------|----------|
G|-5--5-----5--5-----5----|-5--5-----5--5-----5----|-7\-------|
D|-5--5-----5--5-----5----|-5--5-----5--5-----5----|-7\-------|
A|-3--3-----3--3-----3----|-3--3-----3--3-----3----|-5\-------|
E|-------3--------3-----3-|-------3--------3-----3-|----------|




Key:
| /   slide up
| \   slide down
| h   hammer-on
| p   pull-off
| ~   vibrato
| x   Mute note
| b   bend note
| r   release bend
| tr  trill, hammer-on and pull-off between shown notes several times
Tap to rate this tab
# A B C D E F G H I J K L M N O P Q R S T U V W X Y Z