Guitaretab - guitar tabs
Song name
# A B C D E F G H I J K L M N O P Q R S T U V W X Y Z

Stone Temple Pilots - Piece Of Pie tab

No Solo sorry.

* - Harmonic
^ - Palm Mute

Intro/Fill between chorus and verse
e|-----------------------|
B|-----------------------|
G|--------------------7*-|
D|-5-3-0-2-3-3-0------7*-|
A|-5-3-0-2-3-3-0---5*----|
D|-5-3-0-2-3-3-0---5*----|

Pre-verse(4x)
e|-------------------------------|
B|-------------------------------|
G|-------------------------------|
D|-5-3-0-3-0-0-5-3-0-3-0-0-0-0-0-|
A|-5-3-0-3-0-0-5-3-0-3-0-0-0-0-0-|
D|-5-3-0-3-0-0-5-3-0-3-0-0-0-0-0-|

Verse
e|---------------------------------|
B|---------------------------------|
G|---------------------------------|
D|-5-3-0-3-0-0-5-3-0-3-0-0-0-0-0-0-|
A|-5-3-0-3-0-0-5-3-0-3-0-0-0-0-0-0-|
D|-5-3-0-3-0-0-5-3-0-3-0-0-0-0-0-0-|
   ^ ^ ^ ^ ^ ^ ^ ^ ^ ^ ^ ^ ^ ^ ^ ^
[ Tab from: http://www.guitaretab.com/s/stone-temple-pilots/90044.html ]
Pre-Chorus
e|----------------------------------------|
B|----------------------------------------|
G|----------------------------------------|
D|--5-3-0-2-3---5-3-0-2-3---5-3-0-2-3-3-0-|
A|--5-3-0-2-3---5-3-0-2-3---5-3-0-2-3-3-0-|
D|--5-3-0-2-3---5-3-0-2-3---5-3-0-2-3-3-0-|
           "Yeah"      "Yeah"
Chorus
e|------------------------------------------------------|
B|------------------------------------------------------|
G|------------------------------------------------------|
D|--0--0-0-5h7-0---0---4-5-4--5-3-0-0-5h7-3-4-0-0-5h7-7-|
A|--0--0-0-3h5-0---0-0-2-3-2--5-3-0-0-3h5---------3h5-5-|
D|--0--0-0-----0---0----------5-3-0-0-------------------|
       ^ ^     ^   ^

Bridge
e|-------------------------------------------------------------------------|
B|-------------------------------------------------------------------------|
G|-------------------------------------------------------------------------|
D|-10-10-10-10-10-10-10-10-9-9-9-9-9-9-9-9-8-8-8-8-8-8-8-8-7-7-7-7-7-7-7-7-|
A|-8--8--8--8--8--8--8--8--7-7-7-7-7-7-7-7-6-6-6-6-6-6-6-6-5-5-5-5-5-5-5-5-|
D|-------------------------------------------------------------------------|

e|---------------------------------------------------------------------|
B|---------------------------------------------------------------------|
G|---------------------------------------------------------------------|
D|-10-10-10-10-10-10-10-10-9-9-9-9-9-9-9-9-8-8-8-8-8-7---7-7-7-7-7-7-7-|
A|-8--8--8--8--8--8--8--8--7-7-7-7-7-7-7-7-6-6-6-6-6-5---5-5-5-5-5-5-5-|
D|---------------------------------------------------------------------|

Last Riff
e|------------------------------------------------|
B|------------------------------------------------|
G|------------------------------------------------|
D|-10-10-10-10-10-10-10-10-9-9-9-9-9-9-9-9--5-5-7-|
A|-8--8--8--8--8--8--8--8--7-7-7-7-7-7-7-7--3-3-5-|
D|----------------------------------------------0-|
Related for Piece Of Pie tab