Song name
# A B C D E F G H I J K L M N O P Q R S T U V W X Y Z

Stone Temple Pilots - And So I Know tab

 
"All i know" solo - Stone Temple Pilots

Transcribed by Marijan Petkov
e-mail "cakumpakum@hotmail.com"
 


 e|------------------------------------------------------------------------|
 B|----------10--12--------------------------------------------------------|
 G|--9--11b----------11b---9--11hb--9--11b---------------------------------|
 D|------------------------------------------------------------------------|
 A|------------------------------------------------------------------------|
 E|------------------------------------------------------------------------|


 e|-----------------------------12------10---------------------------------|
 B|-------------------------12------12------/12--/12-----------------------|
 G|-----------------11h12--------------------------------------------------|
 D|----------9--12---------------------------------------------------------|
 A|-----10-----------------------------------------------------------------|
 E|--12--------------------------------------------------------------------|


 e|------------------------------------------------------------------------|
 B|------------------------------------------------------------------------|
 G|--/11-------------------------------------------------------------------|
 D|-------12---9---7h9p7p6---7p6-------------------------------------------|
 A|-------------------------------/9--7--9--7--7---------------------------|
 E|------------------------------------------------------------------------|

 

 e|-14--15--14--12--10--10-/12---------------------------------------------|
 B|------------------------------------------------------------------------|
 G|-11--12--11---9---7---7-/9-----------------12------14h15p14--12--14--13-|
 D|---------------------------------------12------12-----------------------|
 A|--------------------------------12h14-----------------------------------|
 E|------------------------------------------------------------------------|



 e|-11h12-11----------15--12*----------------------------------------------|
 B|-----------14--12------12*----------------------------------------------|
 G|-----------------------12*-p11------------------------------------------|
 D|---------------------------------12---9---------------------------------|
 A|------------------------------------------------------------------------|
 E|------------------------------------------------------------------------|


 e|------------------------------------------------------------------------|
 B|----------------------------17--15--------------------------------------|
 G|------------------------16----------16--15h16---------------------------|
 D|----------------16h17---------------------------------------------------|
 A|--------14--17----------------------------------------------------------|
 E|-14h15------------------------------------------------------------------|



 e|------------------------------------------------------------------------|
 B|-15---------------------------------------------------------------------|
 G|-----16--14--12--14--12--14hb12----------12hb---------------------------|
 D|---------------------------------14--14---------------------------------|
 A|------------------------------------------------------------------------|
 E|------------------------------------------------------------------------|







 e|------------12------------12--------------------------------------------|
 B|--------12------12--14hb------14--12--------12--14----------------------|
 G|--14hb--------------------------------14hb----------14p12---------------|
 D|------------------------------------------------------------------------|
 A|------------------------------------------------------------------------|
 E|------------------------------------------------------------------------|

 
 
 
 e|--------------------------------12--------------------------------------|
 B|------------------------------------/12---------------------------------|
 G|------14-----12h13-----------------------/11----------11h12p11----------|
 D|---14----14---------14------------------------12----------------14------|
 A|------------------------/14-----------------------14--------------------|
 E|------------------------------------------------------------------------|


Tablature Legend
----------------
 h   - hammer-on
 p   - pull-off
 b   - bend
 hb  - half-bend
 /  - slide 
 * muted (flageolet)
Tap to rate this tab
# A B C D E F G H I J K L M N O P Q R S T U V W X Y Z