Song name
# A B C D E F G H I J K L M N O P Q R S T U V W X Y Z

Stonefree - Listen tab

Drop B

-------------------------------------------------|
-------------------------------------------------|
-------------------------------------------------|
-12-12-12-0~---5-5-7-7-7-3--7--3--88788788-12-0--|
-12-12-12-0~---5-5-7-7-7-3--7--3--88788788-12-0--|
-12-12-12-0~---5-5-7-7-7-3--7--3--88788788-12-0--|


---------------------------------------------------|
---------------------------------------------------|
---------------------------------------------------|
-8-7-5-3-5-7-3-8-7-8-7-88-12-0---------------------|
-8-7-5-3-5-7-3-8-7-8-7-88-12-0---------------------|
-8-7-5-3-5-7-3-8-7-8-7-88-12-0---------------------|
Tap to rate this tab
 
# A B C D E F G H I J K L M N O P Q R S T U V W X Y Z