Guitaretab - guitar tabs
Song name
# A B C D E F G H I J K L M N O P Q R S T U V W X Y Z

Story Of The Year - Stereo tab

Band: Story Of The Year
Song: Stereo
Album: In The Wake Of Determination
Tuning: C#,G#,C#,Gb,Bb,Eb (Eb drop the Eb a whole step)

here we go this is as close as i can get....i figured that this was the easiest song to 
on the new album so i started here

Guitar 1: (left speaker-Ryan)

wait a second then...
--------------------------------------------------------------------------------------------------|
--------------------------------------------------------------------------------------------------|
-7777777777777777-99999999999999-77-1111111111111111111111111111-1212121212121212121212121212-77--|
-xxxxxxxxxxxxxxxx-xxxxxxxxxxxxxx-xx-x-x-x-x-x-x-x-x-x-x-x-x-x-x--x-x-x-x-x-x-x-x-x-x-x-x-x-x--xx--|
-5555555555555555-77777777777777-55-9-9-9-9-9-9-9-9-9-9-9-9-9-9--1010101010101010101010101010-55--|
--------------------------------------------------------------------------------------------------|

-------------------------------------------------------------------------------------|
-------------------------------------------------------------------------------------|
-14141414141414141414141414141414-1616161616161616-1919191919191919-2121212121212121-|
-x-x-x-x-x-x-x-x-x-x-x-x-x-x-x-x--x-x-x-x-x-x-x-x--x-x-x-x-x-x-x-x--x-x-x-x-x-x-x-x--|
-12121212121212121212121212121212-1414141414141414-1717171717171717-1919191919191919-|
-------------------------------------------------------------------------------------|

-------------------some----------------------------------------------------------|
-------------------crazy---------------------------------------------------------|
-------------------effect-----------------55555555x-55555555x-55555555x-55777777-|
-33-33-2-0-2-3-2--5/------2-0-2-3-2-xx-xx-55555555x-55555555x-55555555x-55777777-|
-33-33-2-0-2-3-2--5/------2-0-2-3-2-xx-xx-33333333x-33333333x-33333333x-33555555-|
-33-33-2-0-2-3-2--5/------2-0-2-3-2-xx-xx----------------------------------------|

--------------------------------|
--------------------------------| X2
-----------------------7--------|
-2-0-2-3-2---4-5-4-5-4---5-4----|
-2-0-2-3-2-7--------------------|
-2-0-2-3-2----------------------|

-----------------------------------------------------------------------------------------xxxx--|
-----------------------------------------------------------------------------------------xxxx--|
-55555555x-55555555x-----------44444444x-1212121212121212-1111111111111111-99999999-7777-xxxx--|
-55555555x-55555555x-55555555x-44444444x-x-x-x-x-x-x-x-x--x-x-x-x-x-x-x-x--xxxxxxxx-xxxx-xxxx--|
-33333333x-33333333x-55555555x-22222222x-1010101010101010-9-9-9-9-9-9-9-9--77777777-5555-xxxx--|
---------------------55555555x-----------------------------------------------------------xxxx--|

------------------------------------------------------------------------|
------------------------------------------------------------------------|
-55555555-77777777-99999999-77777777-55555555-77777777-4444444444444444-|
-55555555-77777777-99999999-77777777-55555555-77777777-2222222222222222-|
-33333333-55555555-77777777-55555555-33333333-55555555-2222222222222222-|
----------00000000----------00000000----------00000000-2222222222222222-|

--------------------------------------------------------------------------------|
--------------------------------------------------------------------------------|
-55555555-77777777-99999999-11111111-12121212-5555555555555555-7777777777777777-|
-55555555-77777777-99999999-11111111-12121212-5555555555555555-7777777777777777-|
-33333333-55555555-77777777-9-9-9-9--10101010-3333333333333333-5555555555555555-|
----------00000000---------------------------------------------0000000000000000-|

-----------------------------------------------------------------------|
-----------------------------------------------------------------------|
-----------------------------------------------------------------------|
-2----------2---------2---------2-3-33-2-0-2h3p2-22222-2-0-2h3p2-22222-|
-2-2h3p2----2-2h3p2---2-2h3p2---2-3-33-2-0-2h3p2-22222-2-0-2h3p2-22222-|
-2-------2--2-------2-2-------2-2-3-33-2-0-2h3p2-22222-2-0-2h3p2-22222-|
                                                 .....           .....

----------------------------------------|
----------------------------------------|
-55555555x-55555555x-55777777-77777777x-|
-55555555x-55555555x-55777777-77777777x-|
-33333333x-33333333x-33555555-55555555x-|
----------------------------------------|

------------------------------|
------------------------------| X2
------------------------------|
-2-0-2h3p2---------4-----4h5--|
-2-0-2h3p2--------------------|
-2-0-2h3p2-2-2-2-2---2-2------|
           . . . .   . .                                  this last d has an effect and 
uses
                                                     the toggle switch and flips 
phil
------------------------------------------------------------------------------------------------|
------------------------------------------------------------------------------------------------|
-55555555x-55555555x-----------44444444x-1212121212121212-1414141414141414-1616161616161616-7---|
-55555555x-55555555x-55555555x-44444444x-x-x-x-x-x-x-x-x--x-x-x-x-x-x-x-x--x-x-x-x-x-x-x-x--7---|
-33333333x-33333333x-55555555x-22222222x-1010101010101010-1212121212121212-1414141414141414-5---|
---------------------55555555x------------------------------------------------------------------|

------------------------------------------------------------------------|
------------------------------------------------------------------------|
-55555555-77777777-99999999-77777777-55555555-77777777-4444444444444444-|
-55555555-77777777-99999999-77777777-55555555-77777777-2222222222222222-|
-33333333-55555555-77777777-55555555-33333333-55555555-2222222222222222-|
----------00000000----------00000000----------00000000-2222222222222222-|

-----------------------------------------------------------------------------------------------|
-----------------------------------------------------------------------------------------------|
-55555555-77777777-99999999-11111111-12121212-5555555555555555-777777777777-7-----7------------|
-55555555-77777777-99999999-11111111-12121212-5555555555555555-777777777777-7-000-7-000-2~--2b-|
-33333333-55555555-77777777-9-9-9-9--10101010-3333333333333333-555555555555-5-000-5-000-2~--2--|
----------00000000---------------------------------------------000000000000---000---000-2~--2--|
                                                                              ...   ...

-------------I--------------------------------------------------|
-------------I--------------------------------------------------|X4
-------------I--------------------------------------------------|
-0-000-0-000-I-222--222-000-222--222-333-222--222-000-----------|
-0-000-0-000-I-222--222-000-222--222-333-222--222-000-----------|
-0-000-0-000-I-222--222-000-222--222-333-222--222-000-2-0-2-6-5-|
   ...   ...   ...  ... ... ...  ... ... ...  ... ...

-------------------------------------------------------------------------|
-------------------------------------------------------------------------|
-9~--12~-11~-------99999999-77777777--55555555-77777777-4444444444444444-|
-x---x---x---------99999999-77777777--55555555-77777777-2222222222222222-|
-7~--10~-9~--------77777777-55555555--33333333-55555555-2222222222222222-|
----------------------------00000000-----------00000000-2222222222222222-|

--------------------------------------------------------------------------------|
--------------------------------------------------------------------------------|
-55555555-77777777-99999999-11111111-12121212-5555555555555555-7777777777777777-|
-55555555-77777777-99999999-11111111-12121212-5555555555555555-7777777777777777-|
-33333333-55555555-77777777-9-9-9-9--10101010-3333333333333333-5555555555555555-|
----------00000000---------------------------------------------0000000000000000-|

------------------------------------------------------------------------|
------------------------------------------------------------------------|
-55555555-77777777-99999999-77777777-55555555-77777777-4444444444444444-|
-55555555-77777777-99999999-77777777-55555555-77777777-2222222222222222-|
-33333333-55555555-77777777-55555555-33333333-55555555-2222222222222222-|
----------00000000----------00000000----------00000000-2222222222222222-|
[ Tab from: http://www.guitaretab.com/s/story-of-the-year/141909.html ]
--------------------------------------------------------------------------------|
--------------------------------------------------------------------------------|
-55555555-77777777-99999999-11111111-12121212-5555555555555555-7777777777777777-|
-55555555-77777777-99999999-11111111-12121212-5555555555555555-7777777777777777-|
-33333333-55555555-77777777-9-9-9-9--10101010-3333333333333333-5555555555555555-|
----------00000000---------------------------------------------0000000000000000-|

-------------I--------------------|
----------x7-I--------------------|
-------------I--------------------|
-2-----------I-2-33-33-2-0-2-3-2--|
-2-2p0-------I-2-33-33-2-0-2-3-2--|
-2-----2p0---I-2-33-33-2-0-2-3-2--|

Guitar 2: (right speaker-Phil)

--------------------------------------------------------------------------------------|
--------------------------------------------------------------------------------------|
-9999999999999999-9999999999999999-9999999999999999-7777777777777777-5555555555555555-|
-xxxxxxxxxxxxxxxx-xxxxxxxxxxxxxxxx-xxxxxxxxxxxxxxxx-xxxxxxxxxxxxxxxx-xxxxxxxxxxxxxxxx-|
-7777777777777777-7777777777777777-7777777777777777-5555555555555555-3333333333333333-|
--------------------------------------------------------------------------------------|

-------------------------------------|
-------------------------------------|
-7777777777777777-9999999999999999---|
-xxxxxxxxxxxxxxxx-xxxxxxxxxxxxxxxx---
-5555555555555555-7777777777777777---|
-------------------------------------|

---------------------------------------------------------------------|
---------------------------------------------------------------------|
------------------------------77777777x-77777777x-77777777x-77999999-|
-33-33-2-0-2-3-2---2-0-2-3-2--55555555x-55555555x-55555555x-55777777-|
-33-33-2-0-2-3-2---2-0-2-3-2--33333333x-33333333x-33333333x-33555555-|
-33-33-2-0-2-3-2---2-0-2-3-2-----------------------------------------|

--------------------------------|
--------------------------------| X2
-----------------------7--------|
-2-0-2-3-2---4-5-4-5-4---5-4----|
-2-0-2-3-2-7--------------------|
-2-0-2-3-2----------------------|

-----------------------------------------------------------------------------xxxx--|
-----------------------------------------------------------------------------xxxx--|
-77777777x-77777777x-----------44444444x-99999999-77777777-55555555-77777777-xxxx--|
-55555555x-55555555x-55555555x-44444444x-xxxxxxxx-xxxxxxxx-xxxxxxxx-xxxxxxxx-xxxx--|
-33333333x-33333333x-55555555x-22222222x-77777777-55555555-33333333-55555555-xxxx--|
---------------------55555555x-----------------------------------------------xxxx--|

-------------------------------------------------------------------------|
-------------------------------------------------------------------------|
-55555555----------------------------55555555----------4444444444444444--|
-55555555-00000000-22222222-00000000-55555555-00000000-2222222222222222--|
-33333333-00000000-22222222-00000000-33333333-00000000-2222222222222222--|
----------00000000-22222222-00000000----------00000000-2222222222222222--|

--------------------------------------------------------------------------------|
--------------------------------------------------------------------------------|
-55555555-------------------11111111-12121212-5555555555555555------------------|
-55555555-00000000-22222222-11111111-12121212-5555555555555555-0000000000000000-|
-33333333-00000000-22222222-9-9-9-9--10101010-3333333333333333-0000000000000000-|
----------00000000-22222222------------------------------------0000000000000000-|

-----------------------------------------------------------------------|
-----------------------------------------------------------------------|
-----------------------------------------------------------------------|
-2----------2---------2---------2-3-33-2-0-2h3p2-22222-2-0-2h3p2-22222-|
-2-2h3p2----2-2h3p2---2-2h3p2---2-3-33-2-0-2h3p2-22222-2-0-2h3p2-22222-|
-2-------2--2-------2-2-------2-2-3-33-2-0-2h3p2-22222-2-0-2h3p2-22222-|
                                                 .....           .....

----------------------------------------|
----------------------------------------|
-77777777x-77777777x-77999999-99999999x-|
-55555555x-55555555x-55777777-77777777x-|
-33333333x-33333333x-33555555-55555555x-|
----------------------------------------|

------------------------------|
------------------------------| X2
------------------------------|
-2-0-2h3p2---------4-----4h5--|
-2-0-2h3p2--------------------|
-2-0-2h3p2-2-2-2-2---2-2------|
           . . . .   . .

------------------------------------------------------------------------| the last d is 
effect
------------------------------------------------------------------------| and he flips 
toggle
-77777777x-77777777x-----------44444444x-99999999-77777777-55555555-7---| switch 
ryan
-55555555x-55555555x-55555555x-44444444x-xxxxxxxx-xxxxxxxx-xxxxxxxx-7---|
-33333333x-33333333x-55555555x-22222222x-77777777-55555555-33333333-5---|
---------------------55555555x------------------------------------------|

-------------------------------------------------------------------------|
-------------------------------------------------------------------------|
-55555555----------------------------55555555----------4444444444444444--|
-55555555-00000000-22222222-00000000-55555555-00000000-2222222222222222--|
-33333333-00000000-22222222-00000000-33333333-00000000-2222222222222222--|
----------00000000-22222222-00000000----------00000000-2222222222222222--|

---------------------------------------------------------------------------------------------|
---------------------------------------------------------------------------------------------|
-55555555-------------------11111111-12121212-5555555555555555--------------7-----7----------|
-55555555-00000000-22222222-11111111-12121212-5555555555555555-000000000000-7-000-7-000-2~---|
-33333333-00000000-22222222-9-9-9-9--10101010-3333333333333333-000000000000-5-000-5-000-2~---|
----------00000000-22222222------------------------------------000000000000---000---000-2~---|
                                                                              ...   ...

-------------I--------------------------------------------------|
-------------I--------------------------------------------------|X4
-------------I--------------------------------------------------|
-0-000-0-000-I-222--222-000-222--222-333-222--222-000-----------|
-0-000-0-000-I-222--222-000-222--222-333-222--222-000-----------|
-0-000-0-000-I-222--222-000-222--222-333-222--222-000-2-0-2-6-5-|
   ...   ...   ...  ... ... ...  ... ... ...  ... ...

------------------------------------------------------------------------|
------------------------------------------------------------------------|
-9~---7~-7~-------------------------55555555----------4444444444444444--|
-x----x--x--------22222222-00000000-55555555-00000000-2222222222222222--|
-7~---5~-5~-------22222222-00000000-33333333-00000000-2222222222222222--|
------------------22222222-00000000----------00000000-2222222222222222--|

--------------------------------------------------------------------------------|
--------------------------------------------------------------------------------|
-55555555-------------------11111111-12121212-5555555555555555------------------|
-55555555-00000000-22222222-11111111-12121212-5555555555555555-0000000000000000-|
-33333333-00000000-22222222-9-9-9-9--10101010-3333333333333333-0000000000000000-|
----------00000000-22222222------------------------------------0000000000000000-|

-------------------------------------------------------------------------|
-------------------------------------------------------------------------|
-55555555----------------------------55555555----------4444444444444444--|
-55555555-00000000-22222222-00000000-55555555-00000000-2222222222222222--|
-33333333-00000000-22222222-00000000-33333333-00000000-2222222222222222--|
----------00000000-22222222-00000000----------00000000-2222222222222222--|

--------------------------------------------------------------------------------|
--------------------------------------------------------------------------------|
-55555555-------------------11111111-12121212-5555555555555555------------------|
-55555555-00000000-22222222-11111111-12121212-5555555555555555-0000000000000000-|
-33333333-00000000-22222222-9-9-9-9--10101010-3333333333333333-0000000000000000-|
----------00000000-22222222------------------------------------0000000000000000-|

-------------I--------------------|
----------x7-I--------------------|
-------------I--------------------|
-2-----------I-2-33-33-2-0-2-3-2--|
-2-2p0-------I-2-33-33-2-0-2-3-2--|
-2-----2p0---I-2-33-33-2-0-2-3-2--|
Related for Stereo tab
Advertisement will be closed in 10 seconds