Song name
# A B C D E F G H I J K L M N O P Q R S T U V W X Y Z

Straight Jacket Legends - Sofia tab

-------------------------------------------------------------------------------
     SONG NAME - Band Name
-------------------------------------------------------------------------------
Tabbed by: Connor Smith
E-mail:connorbetts-1995@hotmail.co.uk

Tuning:Standard

Intro

e|---------------------------------------------------------------------------|
B|---------------------------------------------------------------------------|
G|2--2----------------5-5-5-5------------------------------------------------|
D|2--2--5-5-5--3--3---5-5-5-5------------------------------------------------|
A|0--0--5-5-5--3--3---3-3-3-3------------------------------------------------|
E|------3-3-3--1--1----------------------------------------------------------|X3

e|---------------------------------------------------------------------------|
B|---------------------------------------------------------------------------|
G|---------------------------------------------------------------------------|
D|--------------------------------2--2--0------------------------------------|
A|-----------------------------------------3-3-------------------------------|
E|---------------------------------------------------------------------------|


  pmpmpmpmpmpm     pmpmpmpmpmpm
e|---------------------------------------------------------------------------|
B|---------------------------------------------------------------------------|
G|---------------------------------------------------------------------------|
D|-3-3-3-3-3-3-2h3-3-3-3-3-3-3-2h3-------------------------------------------|
A|-3-3-3-3-3-3-3-3-3-3-3-3-3-3-3-3-------------------------------------------|
E|-1-1-1-1-1-1-----1-1-1-1-1-1-----------------------------------------------|

Verse

e|---------------------------------------------------------------------------|
B|-------------13~-----------------------------------------------------------|
G|-5-------------------------------------------------------------------------|
D|-5-------------------------------------------------------------------------|
A|-3-------------------------------------------------------------------------|
E|---------------------------------------------------------------------------|

e|---------------------------------------------------------------------------|
B|---------------------------------------------------------------------------|
G|--5-4h5--5---5-4h5--5--5-4h5--7-5-5-5-5--4h5-5--5--4h5-5-------------------|
D|--5-5-5--5---5-5-5--5--5-5-5--5-5-5-5-5--5-5-5--5--5-5-5----3~-----x-x-x---|
A|------------------------------------------------------------3~-----x-x-x---|
E|------------------------------------------------------------1~-----x-x-x---|

e|---------------------------------------------------------------------------|
B|---------------------------------------------------------------------------|
G|---------------------------------------------------------------------------|
D|-5----------------5----3~--------------------------------------------------|
A|-3x16--7----3-----3x16-3~--------------------------------------------------|
E|-------5x8--1x8--------1~--------------------------------------------------|

Chorus

e|---------------------------------------------------------------------------|
B|---------------------------------------------------------------------------|
G|2--2----------------5-5-5-5------------------------------------------------|
D|2--2--5-5-5--3--3---5-5-5-5------------------------------------------------|
A|0--0--5-5-5--3--3---3-3-3-3------------------------------------------------|
E|------3-3-3--1--1----------------------------------------------------------|X3

e|---------------------------------------------------------------------------|
B|---------------------------------------------------------------------------|
G|---------------------------------------------------------------------------|
D|-3-3-3-3-3-3-2-------------------------------------------------------------|
A|-3-3-3-3-3-3-3-------------------------------------------------------------|
E|-1-1-1-1-1-1---------------------------------------------------------------|

Bridge

e|---------------------------------------------------------------------------|
B|---------------------------------------------------------------------------|
G|2--2----------------5-5-5-5------------------------------------------------|
D|2--2--5-5-5--3--3---5-5-5-5------------------------------------------------|
A|0--0--5-5-5--3--3---3-3-3-3------------------------------------------------|
E|------3-3-3--1--1----------------------------------------------------------| X3

e|---------------------------------------------------------------------------|
B|---------------------------------------------------------------------------|
G|---------------------------------------------------------------------------|
D|-2-0---2--2-0---2--2-0---2--2--0-------------------------------------------|
A|-----3--------3--------3----------3----------------------------------------|
E|---------------------------------------------------------------------------|

e|---------------------------------------------------------------------------|
B|---------------------------------------------------------------------------|
G|---------------------------------------------------------------------------|
D|-3-3-3-3-3-3-2h3--3-3-3-3-3-3-2h3------------------------------------------|
A|-3-3-3-3-3-3-3-3--3-3-3-3-3-3-3-3------------------------------------------|
E|-1-1-1-1-1-1------1-1-1-1-1-1----------------------------------------------|

e|---------------------------------------------------------------------------|
B|-------------13~-----------------------------------------------------------|
G|-5-------------------------------------------------------------------------|
D|-5-------------------------------------------------------------------------|
A|-3-------------------------------------------------------------------------|
E|---------------------------------------------------------------------------|

e|---------------------------------------------------------------------------|
B|---------------------------------------------------------------------------|
G|--5-4h5--5---5-4h5--5--5-4h5--7-5-5-5-5--4h5-5--5--4h5-5-------------------|
D|--5-5-5--5---5-5-5--5--5-5-5--5-5-5-5-5--5-5-5--5--5-5-5----3~////////////-|
A|------------------------------------------------------------3~////////////-|
E|------------------------------------------------------------1~////////////-|

Chorus

e|---------------------------------------------------------------------------|
B|---------------------------------------------------------------------------|
G|2--2----------------5-5-5-5------------------------------------------------|
D|2--2--5-5-5--3--3---5-5-5-5------------------------------------------------|
A|0--0--5-5-5--3--3---3-3-3-3------------------------------------------------|
E|------3-3-3--1--1----------------------------------------------------------|X3

e|---------------------------------------------------------------------------|
B|---------------------------------------------------------------------------|
G|---------------------------------------------------------------------------|
D|-3-3-3-3-3-3-2-------------------------------------------------------------|
A|-3-3-3-3-3-3-3-------------------------------------------------------------|
E|-1-1-1-1-1-1---------------------------------------------------------------|

Bridge

e|---------------------------------------------------------------------------|
B|---------------------------------------------------------------------------|
G|2--2----------------5-5-5-5------------------------------------------------|
D|2--2--5-5-5--3--3---5-5-5-5------------------------------------------------|
A|0--0--5-5-5--3--3---3-3-3-3------------------------------------------------|
E|------3-3-3--1--1----------------------------------------------------------| X3

e|---------------------------------------------------------------------------|
B|---------------------------------------------------------------------------|
G|---------------------------------------------------------------------------|
D|-2-0---2--2-0---2--2-0---2--2--0-------------------------------------------|
A|-----3--------3--------3----------3----------------------------------------|
E|---------------------------------------------------------------------------|


Bridge 2 

e|---------------------------------------------------------------------------|
B|---------------------------------------------------------------------------|
G|-3~--------7~-------5~-------3~--------------------------------------------|
D|-3~--------7~-------5~-------3~--------------------------------------------|
A|-1~--------5~-------3~-------1~--------------------------------------------|
E|---------------------------------------------------------------------------|

e|---------------------------------------------------------------------------|
B|------------------------------------------------xx--13p-10-xx-10-10-10-----|
G|-3~--------7-7--9---10--9---9--9--9--9--10--10--xx--12p-10-xx-10-10-10-----|
D|-3~--------x-x--x---x---x---x--x--x--x--x---10--xx---------xx--------------|
A|-1~--------5-5--7---8---7---7--7--7--7--8----------------------------------|
E|---------------------------------------------------------------------------|

Bridge 3                                          pm pm pm pm pm pm pm

e|------------------------------------------------------------------------------|
B|------------------------------------------------------------------------------|
G|-7------5------7------5-------7-------5------10-------------------------------|
D|-7------5------7------5-------7-------5------10-10-10-10-10-10-10-10--3-x-3-3-|
A|-5------3------5------3-------5-------3------8--8--8--8--8--8--8--8---3-x-3-3-|
E|----------------------------------------------------------------------1-x-1-1-|

e|--------------------------------------------------------------------------|
B|--------------------------------------------------------------------------|
G|--7-7--5-5-5-3-3-----------------------7-7--5-5-5-------------------------|
D|--7-7--5-5-5-3-3---3--3-3-3------------7-7--5-5-5----3-3-3--3-3-3-3-------|
A|--5-5--3-3-3-1-1---3--3-3-3-----X3-----5-5--3-3-3----3-3-3--3-3-3-3-------|
E|-------------------1--1-1-1--------------------------1-1-1--1-1-1-1-------|X3

e|---------------------------------------------------------------------------|
B|---------------------------------------------------------------------------|
G|-7-7-----------------------------------------------------------------------|
D|-7-7-----------------------------------------------------------------------|
A|-5-5-----------------------------------------------------------------------|
E|---------------------------------------------------------------------------|
************************************

| /   slide up
| \   slide down
| h   hammer-on
| p   pull-off
| ~   vibrato
| +   harmonic
| x   Mute note
| b   Bend
| pb  Pre-bend
| br  Bend release
| pbr Pre-bend release
| brb Bend release bend

***********************************
Tap to rate this tab
 
# A B C D E F G H I J K L M N O P Q R S T U V W X Y Z