Song name
# A B C D E F G H I J K L M N O P Q R S T U V W X Y Z

Streetlight Manifesto - Giving Up Giving In tab

Help us improve GuitareTab! Take a short survey!
			     GIVING UP GIVING IN - Streetlight Manifesto
-------------------------------------------------------------------------------
Tabbed by: merilwallace
Email: merilwallace@yahoo.com

Tuning: standard EADGBe

Well this tab was quite a challenge! Once you get the rythem tings run pretty smooth. 
can play this by either picking or finger picking. Hope you like it, have fun!

e|---------------------2-----------------------------------------------------|
B|-------3---3-----------3----------3-----3---3-----3-----3--------3---0-----|
G|-----0---0---------------2------0---0--------------------------0---0-------|
D|-----------------0---------------------------------------------------------|
A|---------------3-----------------------2--3-----2-----0--------------------|
E|--3--------------------------0------------------------------3--------------|

e|----------------------2------2-----2--h3p2-------------------------3p2-----|
B|--------1-----------3------3-----3----------3---------3---3------3-----3---|
G|-------------------2-----2-----2--------------------0---0------2-----------|
D|-----0------0----0-----0-----0-------------------------------0-------------|
A|---3------2----------------------------------------------------------------|
E|-------------------------------------------------3-------------------------|

e|---------------------------------------------------3p2-----------3------3--|
B|------0-----0h1-----p1--------------3----3------3------3-------3------3----|
G|----0-----0--------0---0--2------0-----------2-----------------------------|
D|---------------------------------------------------------------------------|
A|-----------------3---------------------2--------------------3------2-------|
E|--0-----0---------------------3--------------------------------------------|

e|--------------3--------3---------------3--------3----------------3---------|
B|-----3------3--------3--------3------3--------3--------3---------3---------|
G|-----------------------------------------------------------------0---------|
D|-----------------------------------------------------------------0---------|
A|--0-----3---------2--------0------3--------2--------0------------x---------|
E|-----------------------------------------------------------------3---------|

| /  slide up
| \  slide down
| h  hammer-on
| p  pull-off
| ~  vibrato
| +  harmonic
| x  Mute note

(This is my first Tab, so take it easy on me!!!)
===============================================================================
Related for Giving Up Giving In tab