Song name
# A B C D E F G H I J K L M N O P Q R S T U V W X Y Z

Strokes - Last Nite drum

PT1-Intro:[Repeat once] 
H |---|x-x-x-x-x-x-x-x-x-x-x-x-x-x-x-x-|x-x-x-x-x-x-x-x-x-x-x-x-x-x-x-x-| 
S |00-|--0---0---0---0---0---0---0---0-|--0---0---0---0---0---0---0---0-| 
B |---|0---0---0--0-0--0---0---0--0-0--|0---0---0--0-0--0---0---0--0-0--| 

H |x-x-x-x-x-x-x-x-x-X-X-X-X-X-X-X-| 
S |--0---0---0---0---0---0---0---0-| 
B |0---0---0--0-0--0---0---0--0-0--| 

PT2-Chorus:[Repeat Once][2ndx go 2 Bridge][3rdx go to Outro] 
RD|X-X-X-X-X-X-X-X-X-X-X-X-X-X-X-X-|X-X-X-X-X-X-X-X-X-X-X-X-X-X-X-X-| 
S |--0---0---0---0---0---0---0---0-|--0---0---0---0---0---0---0---0-| 
B |0---0--0-0--0---0---0--0-0--0---|0---0--0-0--0---0---0--0-0--0---| 

PT3-Verse:[Repeat Once] 
RD|X-X-X-X-X-X-X-X-X-X-X-X-X-X-X-X-|X-X-X-X-X-X-X-X-X-X-X-X-X-X-X-X-| 
S |--0---0---0---0---0---0---0---0-|--0---0---0---0---0---0---0---0-| 
B |0---0--0-0--0---0---0--0-0--0---|0---0--0-0--0---0---0--0-0--0---| 

PT4-PreChorus1:[Loose HiHats][Go back 2 chorus] 
H |x-x-x-x-x-x-x-x-x-x-x-x-x-x-x-x-|x-x-x-x-x-x-x-x-x-X-X-X-X-X-X-X-| 
S |--0---0---0---0---0---0---0---0-|--0---0---0---0---0---0---0---0-| 
B |0---0---0--0-0--0---0---0--0-0--|0---0---0--0-0--0---0---0--0-0--| 

PT5-Bridge: 
H |--------------------------------|X-X-X-X-X-X-X-X-X-X-X-X-X-X-X-X-|  
S |--f---f---f---f---f---f---f---f-|--0---0---0---0---0---0---0---0-| 
B |0--0-0---0--0---0--0-0---0--0---|0--0-0---0--0---0--0-0---0--0---| 

RD|X-X-X-X-X-X-X-X-X-X-X-X-X-X-X-X-| 
S |--0---0---0---0---0---0---0---0-| 
B |0--0-0---0--0---0--0-0---0--0---|
 
PT6:Guitar Solo:[Play Throughout solo]
RD|X-X-X-X-X-X-X-X-X-X-X-X-X-X-X-X-|X-X-X-X-X-X-X-X-X-X-X-X-X-X-X-X-| 
S |--0---0---0---0---0---0---0---0-|--0---0---0---0---0---0---0---0-| 
B |0---0--0-0--0---0---0--0-0--0---|0---0--0-0--0---0---0--0-0--0---| 

PT7-PreChorus2:[Loose HiHats] 
H|x-x-x-x-x-x-x-x-x-x-x-x-x-x-x-x-|x-x-x-x-x-x-x-x-x-x-x-x-x-x-x-x-| 
S|--0---0---0---0---0---0---0---0-|--0---0---0---0---0---0---0---0-| 
B|0---0---0--0-0--0---0---0--0-0--|0---0---0--0-0--0---0---0--0-0--| 

[Afterwards go back to chorus] 
H|x-x-x-x-x-x-x-x-x-x-x-x-x-x-x-x-|x-x-x-x-x-x-x-x-x-x-x-x-x-/-/-/-| 
S|--0---0---0---0---0---0---0---0-|--0---0---0---0---0---0---------| 
B|0---0---0--0-0--0---0---0--0-0--|0---0---0--0-0--0---0---0-------| 
[/ = this means to hit the little stick above the HiHat] 

PT7:Outro[Loose HiHats-X] 
H|x-x-x-x-x-x-x-x-x-x-x-x-x-x-x-x-|x-x-x-x-x-x-x-x-X-X-X-X-X-X-X-X-| 
S|--0---0---0---0---0---0---0---0-|--0---0---0---0-0-0-0-0-0-0-0-0-| 
B|0--0-0--0--0-0--0--0-0--0--0-0--|0--0-0--0--0-0--0-0-0-0-0-0-0-0-|

H |x-x-x-x-x-x-x-x-x-x-x-x-x-x-x-x-|x-----------| 
S |--0---0---0---0---0---0---0---0-|0-----------|END 
B |0---0---0--0-0--0---0---0--0-0--|0-----------|
	
Tap to rate this tab
 
# A B C D E F G H I J K L M N O P Q R S T U V W X Y Z