Strokes - Life Is Simple In The Moonlight tab

The Strokes

Album: Angles (2011)
Tune:  Life Is Simple in the Moonlight

This is the solo to the track. I learnt it by ear but im pretty 
sure it's 100% right! There may be an easier way to go about this 
solo but this way makes it much smoother, especially with the 
slides.

Enjoy!



| /  slide up
| \  slide down
| p  pull off
| h  hammer-on
| b  bend ((#) = fret no. to bend too)


e|---------------------------------------------------------------|
B|---------------------------------------------------------------|
G|-11-13-11-9-7-6---2-/4-----------6-/8----11--------------------|
D|------------------------4-/7-\6------10----11------------------|
A|---------------------------------------------------------------|
E|---------------------------------------------------------------|
start (just as vocals finish)

e|---------------------------------------------------------------|
B|---------------------------------------------------------------|
G|-13-11-9-7-4-/6-/9-4-/7--\1-2-3-2-/6-4-/7-6-/9-----------------|
D|---------------------------------------------------------------|
A|---------------------------------------------------------------|
E|---------------------------------------------------------------|


e|---------------------------------------------------------------|
B|---------------------------------14-12-10--/14--12-------------|
G|-7-9-/11-9-11-/13-11-13-/14-13-14--------11--------------------|
D|---------------------------------------------------------------|
A|---------------------------------------------------------------|
E|---------------------------------------------------------------|
leads up to fast bit               (fast bit)

e|--------------------14-12--12-14b(16)-----12-11-9--/12---------|
B|-14-12-10--/14-12--------14----------12-----------9---9\-------|
G|---------------------------------------------------------------|
D|---------------------------------------------------------------|
A|---------------------------------------------------------------|
E|---------------------------------------------------------------|
fast bit cont.                             fast bit ends^

e|---------------------------------------------------------------|
B|---------------------------------------------------------------|
G|-6-7h-/9-11-\9-\7-2-/4--9-\6--6-/7-/9-/11----------------------|
D|----------------------0----------------------------------------|
A|---------------------------------------------------------------|
E|---------------------------------------------------------------|


e|---------------------------------------------------------------|
B|---------------------------------------------------------------|
G|-14-p13---13-\11---11-\9---9-\7--------------------------------|
D|-------14-------12------11-----9-------------------------------|
A|--------------------------------7------------------------------|
E|---------------------------------------------------------------|
                                  ^hold last note


Tabbed by Dec
Tap to rate this tab
 
# A B C D E F G H I J K L M N O P Q R S T U V W X Y Z