Song name
# A B C D E F G H I J K L M N O P Q R S T U V W X Y Z

Stuart Chatwood - Conflict At The Entrance tab

Title:	Conflict At The Entrance
Artist:	Stuart Chatwood
Album:	Prince Of Persia Warrior Within
Tab by: Carlos Eduardo


                                  x3
E|-----------------|---------------|-----------------|-------------------|
B|-----------------|---------------|-----------------|-------------------|
G|-----------------|---------------|-----------------|-------------------|
D|--8-7--8-7--8-7--|--3-3-3-3-2-2--|--3-2--3-2--3-2--|--3-5-3-2-3-5-3-2--|
A|--8-7--8-7--8-7--|--3-3-3-3-2-2--|--3-2--3-2--3-2--|--3-5-3-2-3-5-3-2--|
D|--8-7--8-7--8-7--|--3-3-3-3-2-2--|--3-2--3-2--3-2--|--3-5-3-2-3-5-3-2--|


                                  x3
E|-----------------|---------------|-----------------|-------------------|
B|-----------------|---------------|-----------------|-------------------|
G|-----------------|---------------|-----------------|-------------------|
D|--8-7--8-7--8-7--|--3-3-3-3-2-2--|--3-2--3-2--3-2--|--3-5-3-2-3-5-3-2--|
A|--8-7--8-7--8-7--|--3-3-3-3-2-2--|--3-2--3-2--3-2--|--3-5-3-2-3-5-3-2--|
D|--8-7--8-7--8-7--|--3-3-3-3-2-2--|--3-2--3-2--3-2--|--3-5-3-2-3-5-3-2--|

                                                                                        x2
E|---------|-----------|---------|-----------|---------|-----|---------|-----------------|
B|---------|-----------|---------|-----------|---------|-----|---------|-----------------|
G|---------|-----------|---------|-----------|---------|-----|---------|-----------------|
D|-8-7-----|-----7---7-|-8-7-----|-----3-2-2-|-8-7-----|-----|-3-2-----|-3-2-3-5-3-2-3-5-|
A|-8-7-----|-----7---7-|-8-7-----|-----3-2-2-|-8-7-----|-----|-3-2-----|-3-2-3-5-3-2-3-5-|
D|-8-7-----|-----7---7-|-8-7-----|-----3-2-2-|-8-7-----|-----|-3-2-----|-3-2-3-5-3-2-3-5-|

E|-----------------|-----------------|-----------------|-----------------|
B|-----------------|-----------------|-----------------|-----------------|
G|-----------------|-----------------|-----------------|-----------------|
D|-----7-----7-----|-8-----8-----8---|-----7-----7-----|-8-----8-----8---|
A|---7-----7-------|---------------7-|---7-----7-------|---------------7-|
D|-7-----7-----7-7-|---7-7---7-7-----|-7-----7-----7-7-|---7-7---7-7-----|
 |PM.....................................................................
 |
E|-----------------|-----------------|-----------------|-----------------|
B|-----------------|-----------------|-----------------|-----------------|
G|-----------------|-----------------|-----------------|-----------------|
D|-----------------|-----------------|-----------------|-----------------|
A|-----------------|-----------------|-----------------|-----------------|
D|-7-7-7-7-7-7-7-7-|-8-8-8-8-8-8-8-8-|-7-7-7-7-7-7-7-7-|-8-8-8-8-8-8-8-8-|
  PM.....................................................................

E|-----------------|-----------------|-----------------|-----------------|
B|-----------------|-----------------|-----------------|-----------------|
G|-----------------|-----------------|-----------------|-----------------|
D|-----7-----7-----|-8-----8-----8---|---7-------7-----|---8-------8-----|
A|---7-----7-------|-------8-----8---|---7-------7-----|---8-------8-----|
D|-7-----7-----7-7-|---7-7---7-7-----|-7-------7-------|-7-------7-------|
 |PM......................   PM.
 |
E|-----------------|-----------------|-----------------|-----------------|
B|-----------------|-----------------|-----------------|-----------------|
G|-----------------|-----------------|-----------------|-----------------|
D|-----------------|-----------------|-----------------|-----------------|
A|-----------------|-----------------|-----------------|-----------------|
D|-7-7-7-7-7-7-7-7-|-8-8-8-8-8-8-8-8-|-7-7-7-7-7-7-7-7-|-8-8-8-8-8-8-8-8-|
  PM.....................................................................

E|-------------------------|-----------------|-------------------------|-----------------|
B|-------------------------|-----------------|-------------------------|-----------------|
G|-------------------------|-----------------|-------------------------|-----------------|
D|-----3-----2-----3-----2-|-----------------|-----3-----2-----3-----2-|-----------------|
A|---3-----2-----3-----2---|-----------------|---3-----2-----3-----2---|-----------------|
D|-3-----2-----3-----2-----|-2-2-2-2-2-2-2-2-|-3-----2-----3-----2-----|-2-2-2-2-2-2-2-2-|
 |                           PM.............                             PM.............
E|-------------------------|-----------------|-------------------------|-----------------|
B|-------------------------|-----------------|-------------------------|-----------------|
G|-------------------------|-----------------|-------------------------|-----------------|
D|-3-----2-----3-----2-----|-----------------|-3-----2-----3-----2-----|-----------------|
A|-3-----2-----3-----2-----|-----------------|-3-----2-----3-----2-----|-----------------|
D|-3-----2-----3-----2-----|-----------------|-3-----2-----3-----2-----|-----------------|

E|-------------------------|-----------------|-------------------------|-----------------|
B|-------------------------|-----------------|-------------------------|-----------------|
G|-------------------------|-----------------|-------------------------|-----------------|
D|-----3-----2-----3-----2-|-----------------|-----3-----2-----3-----2-|-----------------|
A|---3-----2-----3-----2---|-----------------|---3-----2-----3-----2---|-----------------|
D|-3-----2-----3-----2-----|-----------------|-3-----2-----3-----2-----|-----------------|
 |
E|-------------------------|-----------------|-------------------------|-----------------|
B|-------------------------|-----------------|-------------------------|-----------------|
G|-------------------------|-----------------|-------------------------|-----------------|
D|-3-----2-----3-----2-----|-----------------|-3-----2-----3-----2-----|-----------------|
A|-3-----2-----3-----2-----|-----------------|-3-----2-----3-----2-----|-----------------|
D|-3-----2-----3-----2-----|-----------------|-3-----2-----3-----2-----|-----------------|


                                                                        x2
E|-----------------|-----------------|-----------------|-----------------|
B|-----------------|-----------------|-----------------|-----------------|
G|-----------------|-----------------|-----------------|-----------------|
D|-----------------|-----------------|-----------------|-----------------|
A|-7-7-7-8-8-8-5-5-|-5-8-8-8-5-5-8-8-|-7-7-7-8-8-8-5-5-|-5-8-8-8-5-5-8-8-|
D|-7-7-7-8-8-8-5-5-|-5-8-8-8-5-5-8-8-|-7-7-7-8-8-8-5-5-|-5-8-8-8-5-5-8-8-|
   PM...................................................................

E|-----------------|-----------------|-----------------|-----------------|
B|-----------------|-----------------|-----------------|-----------------|
G|-----------------|-----------------|-----------------|-----------------|
D|-----------------|-----------------|-----------------|-----------------|
A|-7-7-7-8-8-8-5-5-|-5-8-8-8-5-5-8-8-|-7-7-7-8-8-8-5-5-|-5-8-8-8-5-5-8-8-|
D|-7-7-7-8-8-8-5-5-|-5-8-8-8-5-5-8-8-|-7-7-7-8-8-8-5-5-|-5-8-8-8-5-5-8-8-|
 | PM...................................................................
 |
E|-----------------|-----------------|-----------------|-----------------|
B|-----------------|-----------------|-----------------|-----------------|
G|-----------------|-----------------|-----------------|-----------------|
D|-7-7-7-8-8-8-5-5-|-5-8-8-8-5-5-8-8-|-7-7-7-8-8-8-5-5-|-5-8-8-8-5-5-8-8-|
A|-----------------|-----------------|-----------------|-----------------|
D|-----------------|-----------------|-----------------|-----------------|
   PM...................................................................

E|-----------------|-----------------|-----------------|-----------------|
B|-----------------|-----------------|-----------------|-----------------|
G|-----------------|-----------------|-----------------|-----------------|
D|-----------------|-----------------|-----------------|-----------------|
A|-7-7-7-8-8-8-5-5-|-5-8-8-8-5-5-8-8-|-7-7-7-8-8-8-5-5-|-5-8-8-8-5-5-8-8-|
D|-7-7-7-8-8-8-5-5-|-5-8-8-8-5-5-8-8-|-7-7-7-8-8-8-5-5-|-5-8-8-8-5-5-8-8-|
 | PM...................................................................
 |
E|-------------------|-------------------|-------------------|-------------------|
B|--10--10b11r10--8--|--10b11r11--8--10--|--10--10b11r10--8--|--10b11r11--8--10--|
G|-------------------|-------------------|-------------------|-------------------|
D|-------------------|-------------------|-------------------|-------------------|
A|-------------------|-------------------|-------------------|-------------------|
D|-------------------|-------------------|-------------------|-------------------|

E|------------|--------------|-------------|---------------|--------------|
B|------------|--------------|-------------|---------------|--------------|
G|------------|--------------|-------------|---------------|--------------|
D|------------|--------------|-------------|---------------|--------------|
A|-7---8---11-|-12---14---15-|-------------|-8--7--8--12---|-14--12--14---|
D|-7---8---11-|-12---14---15-|-------------|-8--7--8--12---|-14--12--14---|
Tap to rate this tab
 
# A B C D E F G H I J K L M N O P Q R S T U V W X Y Z