Guitaretab - guitar tabs
Song name
# A B C D E F G H I J K L M N O P Q R S T U V W X Y Z

Style Council - Your The Best Thing tab

Style council 
Youre the best thing
Intro tab by fxman7

Tuning:standard
   
[ Tab from: http://www.guitaretab.com/s/style-council/53697.html ]
      AM7		 g#m7/d#		   F#m7  	
e|-0-----------------------------------------------------------------------|
B|-2- 5--5--5---------4----------------------2-----------------------------|
G|-1-- -------6 6-----4--------4-6-----------2----------------------4-- ---|
D|-2--- --------------4---4h6------6p4-6-----2----2-4-2-4-2-4-24s6---6-4-6|
A|-0---- -------------6----------------------42h4-------------------------|
E|-------------------------------------------2-----------------------------
            
e|----------0-------------------------7-----------------------------------|
B|----------2----5-5----7s9-4----5-5-----5--2-----------------------------|
G|-4-2------1-4s6---6-4-----4-4h6---6-4-----2----------------------4------|
D|-----4-2--2---------------4---------------2----2-4-2-4-2-2-4s6--6-4-----|
A|---- ---4-0---------------6---------------4-2h4-------------------------|
E|------------------------------------------2-----------------------------|

not sure maybe incomplete!
e|------12-----14s16-14-12-------0---------------------------------------|
B|-12s14--14-12-----------14-12--2---------------------------------------|
G|-------------------------------1---------------------------------------|
D|-------------------------------2---------------------------------------|
A|-------------------------------0---------------------------------------|
E|-----------------------------------------------------------------------|
have fun
Related for Your The Best Thing tab