Song name
# A B C D E F G H I J K L M N O P Q R S T U V W X Y Z

Styx - Suite Madame Blue tab

Artist: Styx
Song: Suite Madame Blue

Gtr 1: Accoustic
Gtr 2: Electric Moderate distortion

Tuning: Standard (EADGBe)


Firstly, I'm afraid this tab isn't 100% complete, but what I have is pretty much 100%
I'll spend some time tabbing the rest but as I found no really amazing tabs of this song
I figured I'd toss this out there until I tab the whole thing. Again, sorry, and enjoy.

[Intro and First Two Verses] (play twice as intro and six times per verse plus one extra
Gtr 2 when it comes in at the intro to Verse 3)

Gtr 1
|---------------2----------------------0----------------------0------------|
|------------3----3-----------------3-----3----------------3-----3---------|
|---------4----------4-----------4-----------4----------4-----------4------|
|------4----------------4-----4-----------------4----4-----------------4---|
|---2----------------------0-----------------------------------------------|
|--------------------------------------------------4-----------------------|

|---------------------------|
|------------3----------2---|
|---------4----------3------|
|------4----------4---------|
|---------------------------|
|---3----------2------------|


[Intro to Verse 3]
Gtr 2
|---2-2-2-2-2-2-2-2--5-5-5-5-5-5-5-5--4-4-4-4-4-4-4-4--3-3-3-3-3-0---|
|---3-3-3-3-3-3-3-3--5-5-5-5-5-5-5-5--4-4-4-4-4-4-4-4--3-3-3-3-3-2---|
|---4-4-4-4-4-4-4-4--6-6-6-6-6-6-6-6--5-5-5-5-5-5-5-5--4-4-4-4-4-2---|
|---4-4-4-4-4-4-4-4--7-7-7-7-7-7-7-7--6-6-6-6-6-6-6-6--5-5-5-5-5-2---|
|---2-2-2-2-2-2-2-2--7-7-7-7-7-7-7-7--6-6-6-6-6-6-6-6--5-5-5-5-5-0---|
|---2-2-2-2-2-2-2-2--5-5-5-5-5-5-5-5--4-4-4-4-4-4-4-4--3-3-3-3-3-0---|


[Verse 3]
Gtr 2
       Suite Madame Blue,      Gaze in your looking glass,
|---2--2-------------0--0----3--3------------0-------0-----|
|---3--3-------------2--2----3--3------------2-------2-----|
|---4--4-------------2--2----4--4------------2-------2-----|
|---4--4-------------2--2----5--5------------2-------2-----|
|---2--2-------------0--0----5--5------------0-------0-----|
|---2--2-------------0--0----3--3------------0-------0-----|

       You're not a child anymore
|---2--2------------0--0-----3-3-3-3-3-3-3-3-3-3-3-3-3-5---|
|---3--3------------2--2-----3-3-3-3-3-3-3-3-3-3-3-3-3-5---|
|---4--4------------2--2-----4-4-4-4-4-4-4-4-4-4-4-4-4-6---|
|---4--4------------2--2-----5-5-5-5-5-5-5-5-5-5-5-5-5-7---|
|---2--2------------0--0-----5-5-5-5-5-5-5-5-5-5-5-5-5-7---|
|---2--2------------0--0-----3-3-3-3-3-3-3-3-3-3-3-3-3-5---|


       Suite Madame Blue,      The future is all but past,
|---2--2-------------0--0----3--3------------0-------0-----|
|---3--3-------------2--2----3--3------------2-------2-----|
|---4--4-------------2--2----4--4------------2-------2-----|
|---4--4-------------2--2----5--5------------2-------2-----|
|---2--2-------------0--0----5--5------------0-------0-----|
|---2--2-------------0--0----3--3------------0-------0-----|

     So dressed in your jewels,    You made your own rules,
|---5---5---------------0--0------5--5---------------0--0--|
|---7---7---------------2--2------7--7---------------2--2--|
|---7---7---------------2--2------7--7---------------2--2--|
|---7---7---------------2--2------7--7---------------2--2--|
|---5---5---------------0--0------5--5---------------0--0--|
|---5---5---------------0--0------5--5---------------0--0--|

     You conquered the world and more,  Heaven's
|---5-----5------------0--0-------3--------------|
|---7-----7------------2--2-------3--------------|
|---7-----7------------2--2-------4--------------|
|---7-----7------------2--2-------5--------------|
|---5-----5------------0--0-------5--------------|
|---5-----5------------0--0-------3--------------|

Gtr 1 (repeat four times)
   door....
|---------------2----------------------0----------------------0------------|
|------------3----3-----------------3-----3----------------3-----3---------|
|---------4----------4-----------4-----------4----------4-----------4------|
|------4----------------4-----4-----------------4----4-----------------4---|
|---2----------------------0-----------------------------------------------|
|--------------------------------------------------4-----------------------|

|---------------------------|
|------------3----------2---|
|---------4----------3------|
|------4----------4---------|
|---------------------------|
|---3----------2------------|

There's something kinda wonky after this and I will tab that but until then this will
to tide you over. At "America......" the chords are Bm, D, E, Bm, D, A with the word
on the first Bm. Also I think the chords for the last verse are about the same as the 
for Verse 3. Hope this helps.
Tap to rate this tab
 
# A B C D E F G H I J K L M N O P Q R S T U V W X Y Z