Song name
# A B C D E F G H I J K L M N O P Q R S T U V W X Y Z

Styx - Desert Moon tab

Desert Moon
by Dennis de Young of Styx
Please feel free to correct

|--2-----3------5---------------------0----------------|
|----3-----3-------0---2------3------------------------|
|------2-----2-----------2------2----------------------|
|--0-----------------------2------2--------------------|
|------------------------------------------------------|
|------------------------------------------------------|

|---0-2-0----------------------------------------------|
|---------3--0--------2--------3--------0--------------|
|--------------0---------2-------2---------------------|
|----------------0---------2--------2------------------|
|------------------------------------------------------|
|------------------------------------------------------|


|----2----------3-------5---------------0-0------------|
|--------3--------3-------0--2-----3---------3-3-------|
|----------2--------2----------2----2------------------|
|----0---------------------------2----2----------------|
|------------------------------------------------------|
|------------------------------------------------------|

|---------2--0-0----------5----------------------------|
|---0--3--3------------3-------------------------------|
|-------------------4----------------------------------|
|------------------------------------------------------|
|------------------------------------------------------|
|------------------------------------------------------|
Tap to rate this tab
 
# A B C D E F G H I J K L M N O P Q R S T U V W X Y Z