Guitaretab - guitar tabs
Song name
# A B C D E F G H I J K L M N O P Q R S T U V W X Y Z

Styx - Miss America tab

Miss America
Styx


*-let ring   har- harmonics
p-pull off    /-slide up
h- hammer on  -slide down

intro keyboard riff:

E|---------------------------------------------------------------------------11*--12*---------|
B|--12------------13*--12---------------------------------------------7/13*------------12-----|
G|-----12-----------------14*--12-----------11-12*-----11-1212/14*-----------------------12*-|
D|--------14*---------------------14*----14---------14----------------------------------------|
A|--------------------------------------------------------------------------------------------|
E|--------------------------------------------------------------------------------------------|

E|--12--14--12-14*---15-15*--|
B|----------------------------|
G|----------------------------|
D|----------------------------|
A|----------------------------|
E|----------------------------| 2x

E|--12--14--1515/17*-------------------------------------------12*--|
B|---------------------19*---------------------------------12*--Har--|
G|--------------------------20*----------------------------Har-------|
D|-------------------------------21*---19*---------------------------|
A|------------------------------------------18*18/19*---------------|
E|-------------------------------------------------------------------|

Now the Guitar:

E|-------------------------------|
B|-------------------------------|
G|-------------------------5--7--|
D|--2p0h2--------2h5p2--X--5-7--| -------------|
A|----------------------X--3--5--|		|
E|--------0-3-0---------X--------|		|
						|
E|-------------------------------|		|
B|-------------------------------|		|
G|-------------------------7--5--|		|
D|--2p0h2--------2h5p2--X--7-5--|		|
A|----------------------X--5--3--|		|
E|--------0-3-0---------X--------|		|
						|--This part 3x
E|-------------------------------|		|
B|-------------------------------|		|
G|-------------------------5--7--|		|
D|--2p0h2--------2h5p2--X--5-7--|		|
A|----------------------X--3--5--|		|
E|--------0-3-0---------X--------|		|
						|
E|----------------------------------|	        |
B|----------------------------------|	        |
G|----------------------------------|	        |
D|--X---9-9--9--7-----5--7----------|-----------|
A|--X---9-9--9--7-----5--7----------|
E|--X---7-7--7--5--0--3--5----------|

E|--------------------|
B|--------------------|
G|--------------------|
D|--9--9-9--10--9--7--|
A|--9--9-9--10--9--7--|
E|--7--7-7---8--7--5--|
E|--------------------|
B|--------------------|
G|--------------------|
D|--9--9-9---9--7--5--|
A|--9--9-9---9--7--5--|
E|--7--7-7---7--5--3--|

E|-------------------------------7--------|
B|----------------------------10---10-----|
G|--------------------------9---------9*--|
D|--9--9-9--10--9--7-5--7---------------|
A|--9--9-9--10--9--7-5------------------|
E|--7--7-7---8--7--5-3------------------|

E|-------------------------------|
B|-------------------------------|
G|-------------------------5--7--|
D|--2p0h2--------2h5p2--X--5-7--| -------------|
A|----------------------X--3--5--|		|
E|--------0-3-0---------X--------|		|
						|
E|-------------------------------|		|
B|-------------------------------|		|
G|-------------------------7--5--|		|
D|--2p0h2--------2h5p2--X--7-5--|		|
A|----------------------X--5--3--|		|
E|--------0-3-0---------X--------|		|
						|--This part 2x
E|-------------------------------|		|
B|-------------------------------|		|
G|-------------------------5--7--|		|
D|--2p0h2--------2h5p2--X--5-7--|		|
A|----------------------X--3--5--|		|
E|--------0-3-0---------X--------|		|
						|
E|----------------------------------|	        |
B|----------------------------------|	        |
G|----------------------------------|	        |
D|--X---9-9--9--7-----5--7----------|-----------|
A|--X---9-9--9--7-----5--7----------|
E|--X---7-7--7--5--0--3--5----------|

E|--------------------|
B|--------------------|
G|--------------------|
D|--9--9-9--10--9--7--|
A|--9--9-9--10--9--7--|
E|--7--7-7---8--7--5--|
[ Tab from: http://www.guitaretab.com/s/styx/18610.html ]
E|--------------------|
B|--------------------|
G|--------------------|
D|--9--9-9---9--7--5--|
A|--9--9-9---9--7--5--|
E|--7--7-7---7--5--3--|

E|-------------------------------7--------|
B|----------------------------10---10-----|
G|--------------------------9---------9*--|
D|--9--9-9--10--9--7-5--7---------------|
A|--9--9-9--10--9--7-5------------------|
E|--7--7-7---8--7--5-3------------------|

long keyboard solo 


E|-------------------------------|
B|-------------------------------|
G|-------------------------5--7--|
D|--2p0h2--------2h5p2--X--5-7--| -------------|
A|----------------------X--3--5--|		|
E|--------0-3-0---------X--------|		|
						|
E|-------------------------------|		|
B|-------------------------------|		|
G|-------------------------7--5--|		|
D|--2p0h2--------2h5p2--X--7-5--|		|
A|----------------------X--5--3--|		|
E|--------0-3-0---------X--------|		|
						|--This part 2x during the solo
E|-------------------------------|		|
B|-------------------------------|		|
G|-------------------------5--7--|		|
D|--2p0h2--------2h5p2--X--5-7--|		|
A|----------------------X--3--5--|		|
E|--------0-3-0---------X--------|		|
						|
E|----------------------------------|	        |
B|----------------------------------|	        |
G|----------------------------------|	        |
D|--X---9-9--9--7-----5--7----------|-----------|
A|--X---9-9--9--7-----5--7----------|
E|--X---7-7--7--5--0--3--5----------|

E|--------------------|
B|--------------------|
G|--------------------|
D|--9--9-9--10--9--7--|
A|--9--9-9--10--9--7--|
E|--7--7-7---8--7--5--|

E|--------------------|
B|--------------------|
G|--------------------|
D|--9--9-9---9--7--5--|
A|--9--9-9---9--7--5--|
E|--7--7-7---7--5--3--|

E|-------------------------------7--------|
B|----------------------------10---10-----|
G|--------------------------9---------9*--|
D|--9--9-9--10--9--7-5--7---------------|
A|--9--9-9--10--9--7-5------------------|
E|--7--7-7---8--7--5-3------------------|

E|-------------------------------|
B|-------------------------------|
G|-------------------------5--7--|
D|--2p0h2--------2h5p2--X--5-7--| -------------|
A|----------------------X--3--5--|		|
E|--------0-3-0---------X--------|		|
						|
E|-------------------------------|		|
B|-------------------------------|		|
G|-------------------------7--5--|		|
D|--2p0h2--------2h5p2--X--7-5--|		|
A|----------------------X--5--3--|		|
E|--------0-3-0---------X--------|		|
					        |--This part 2x
E|-------------------------------|		|
B|-------------------------------|		|
G|-------------------------5--7--|		|
D|--2p0h2--------2h5p2--X--5-7--|		|
A|----------------------X--3--5--|		|
E|--------0-3-0---------X--------|		|
						|
E|----------------------------------|	        |
B|----------------------------------|	        |
G|----------------------------------|	        |
D|--X---9-9--9--7-----5--7----------|-----------|
A|--X---9-9--9--7-----5--7----------|
E|--X---7-7--7--5--0--3--5----------|

E|--------------------|
B|--------------------|
G|--------------------|
D|--9--9-9--10--9--7--|
A|--9--9-9--10--9--7--|
E|--7--7-7---8--7--5--|

E|--------------------|
B|--------------------|
G|--------------------|
D|--9--9-9---9--7--5--|
A|--9--9-9---9--7--5--|
E|--7--7-7---7--5--3--|

E|-------------------------------7--------|
B|----------------------------10---10-----|
G|--------------------------9---------9*--|
D|--9--9-9--10--9--7-5--7---------------|
A|--9--9-9--10--9--7-5------------------|
E|--7--7-7---8--7--5-3------------------|

Then another short keyboard solo

E|-------------------------------|
B|-------------------------------|
G|-------------------------5--7--|--------------|
D|--2p0h2--------2h5p2--X--5-7--| 		|
A|----------------------X--3--5--|		|
E|--------0-3-0---------X--------|		|
						|-This part 5x while fading out
E|-------------------------------|		|
B|-------------------------------|		|
G|-------------------------7--5--|		|
D|--2p0h2--------2h5p2--X--7-5--|--------------|
A|----------------------X--5--3--|		
E|--------0-3-0---------X--------|
	
Related for Miss America tab