Song name
# A B C D E F G H I J K L M N O P Q R S T U V W X Y Z

Sublime - Seed tab

Help us improve GuitareTab! Take a short survey!
Band: Sublime
Song: Seed (Self-Titled Album)
Tuning: Standard (EBGDAE)
Tabbed By: Reisies

E--------------------------------------------------|
B-----------13-15-15/16-16-15-13-13h15p13----------|
G--14-14-14----------------------------------------|
D-----------------------------------------15-------|
A--------------------------------------------------|
E--------------------------------------------------|

When doing the 13h15p13 above, hold the 13 with your index finger, hammer onto the 15
middle finger, and then pull the middle finger off while keeping the index finger on the 
return to the 13.

E--------------------------------------------------|
B---------13-13-15-15/16-16-15-13-15-13-15---------|
G--14-14-------------------------------------------|
D--------------------------------------------------|
A--------------------------------------------------|
E--------------------------------------------------|

E--------------------------------------------------|
B-----15/17-17-(9-times)-15/17---------------------|
G--------------------------------------------------|
D--------------------------------------------------|
A--------------------------------------------------|
E--------------------------------------------------|
The 15/17-17 is done 10 times but on the 10th time, bend and hold the 17 for a little
(like 1 second) and then slide down the fret board (on the b string) from 17 through the
notes to make a fading sound.

E--------------------------------------------------------------------|
B--------------------------------------------------------------------|
G--------------------------------------------------------------------|
D----10-12-12/14-14-12-10-----------10-10-12-12/13-13-12/10-12h10-12-|
A-12--------------------------12-12----------------------------------|
E-------------------------13-----------------------------------------|

E--------------------------------------------------|
B--------------------------------------------------|
G--------12/9----13/12--12/13----------------------|
D-12/14----------14/13--13/14----------------------|
A--------------------------------------------------|
E--------------------------------------------------|
On the 12/13, do a vibrato on the 13.
       13/14                      14

This is my interpretation of the solo and I think it's mostly correct.  This solo, like
lot of sublime's solos are all about flow which is why there's a lot of sliding.  Just
to the song and try and play this tab to it. Have fun.
Related for Seed tab