Song name
# A B C D E F G H I J K L M N O P Q R S T U V W X Y Z

Sublime - Doin Time tab

"Doin' Time"(aka Summertime)
by Sublime
Tabbed by Mark D.
Simpsons0@aol.com

Key-
X-muted string

Written by Brad Nowell, Marshall Goddman, George Gerswhin, Ira 
Gershwin, Du Bose Heyward, and Dorothy Heyward.


Well Brad doesn't use much guitar on this except for the break, but the 
xylophone intro and main riff sounds good if you use a clean electric 
guitar.This is the intro. Simple.  Just repeat throughout the song.

Gm      C

(let ring)

E|-----------------|
B|----3---5--------|
G|----3---5--------|
D|-5---------------|
A|-----------------|
E|-----------------|And then the break.  ("Me and my girl...")

Gm                        C6
E|--X-3-------X--3--X--5---|
B|--X-3--X-3--X--3--X--5---|
G|---------X--3------------|
D|-------------------------|
A|-------------------------|
E|-------------------------|

Very easy.
Tap to rate this tab
# A B C D E F G H I J K L M N O P Q R S T U V W X Y Z