Song name
# A B C D E F G H I J K L M N O P Q R S T U V W X Y Z

Sublime - Hope tab

listen to the cd to find the strumming
Tuning: normal


     Intro:
e---------------------|
b---------------------|
g---------------------|
d--------7---8--------|
a---5---5---6---8-----|    x2
E---3------------6----|

Verse
e---------------|      e---------------|
b---------------|      b---------------|
g---------------|      g---------------|
d---5---7---8---|      d---5---8-------|
a---3---5---6---|      a---3---6---8---|
E---------------|      E------------6--|

Chorus
e-----------------------|
b-----------------------|
g-----------------------|
d--------7---8----------|
a---5---5---6---8-------|
E---3------------6------|
Tap to rate this tab
# A B C D E F G H I J K L M N O P Q R S T U V W X Y Z