Song name
# A B C D E F G H I J K L M N O P Q R S T U V W X Y Z

Sublime - Bad Fish tab

The tabs for this songs were correct in terms of chords but weren't the chords 
Bradley used when he played this song.

Badfish by Sublime Amazing Song!!

Credit for Lov3Slav3 who figured out the riffs for the song

Here are the chords that make up the song

A   Bm    G    D    E   A5
5----2----3----7----9----7--|
5----3----3----7----9----7--|
6----4----4----7----9----7--|
7----4----5----7----9----7--|
7----2----5----5----5----7--|
5---------3--------------5--|

Pretty simple so here's the intro

A,Bm,G,A,A,Bm,G,A

When you grab a hold of me
     G                       A5
Tell me I will never be set free
                    Bm
But I'm a parasite,
       G                          A
Creep and crawl I step into the night
               D
Two pints of booze,
         G                      A 
Tell me are you a bad fish too? (are you a badfish too?)
e|------------------------------------------|
B|--2h3p2-----------------------------------|
G|--------2-----2h4-4-----------------------|
D|----------2h4-----------------------------|
A|------------------------------------------|
E|------------------------------------------|
D                           A
Ain't got no money to spend
D                          A
I know the night will never end
D                   A
Lord knows I'm weak
            D                       E
Won't somebody get me off of this reef?

Verse 2:
A                           Bm
Baby you're a big blue whale
     G                               A5
Grab the reef when all duck diving fails
      Bm                  G    
I swim, but I wish I never learned
D               G              A
The water's too polluted with germs
e|------------------------------------------|
B|-----------------------2h3p2---2h3p2------|
G|-------------------------------------2----|
D|---------------------------------------2--|
A|------------------------------------------|
E|------------------------------------------|
 
             D                           A
I dive deep when it's ten feet over head
   D                               A
Grab the reef from underneath my bed. (underneath my bed but)
e|------------------------------------------|
B|-----------------7-10--10-7---------------|
G|-------------7-9--------------------------|
D|---------7-9-----------------11-7h9-7-----|
A|-----7-9----------------------------------|
E|-7-9--------------------------------------|
D                               A
Ain't got not quarrels with God.
D                         A
Ain't got no time to grow old.
D                    A
Lord knows I'm weak.
             D                       E
Won't some body get me off of this reef?

Intro then,

solo:

e|------------------------------------------|
B|------------------------------------------|
G|-4h6---  4h6----4br-----------------------|
D|------------------------------------------|
A|------------------------------------------|
E|------------------------------------------|

e|------------------------------------------|
B|------------------------------------------|
G|-------2-41h2p1--------------------------|
D|--2h4-----------2h4----------let-ring-----|
A|--------------------2-2p0--2/4-----------|
E|------------------------------------------|

e|------------------------------------------|
B|------------------------------------------|
G|---------------2p1------------------------|
D|----2h4-4----4-----2/4--------------------|
A|--4---------------------------------------|
E|------------------------------------------|

e|--5---------------------------------------|
B|-----7------------------------------------|
G|--------64\2--4-2------------------------|
D|------------------------------------------|
A|------------------------------------------|
E|------------------------------------------|

| h  hammer-on
| p  pull-off
| /  slide up
| \  slide down
Tap to rate this tab
 
# A B C D E F G H I J K L M N O P Q R S T U V W X Y Z