Song name
# A B C D E F G H I J K L M N O P Q R S T U V W X Y Z

Sublime - Shame In Dem Game tab

-------------------------------------------------------------------------------
		    Shame in Dem Game (with HR) - Sublime
-------------------------------------------------------------------------------
Tabbed by: Dustin Goodall
Email: dustin.goodall @ hotmail.com

Tuning: eBGDAE (Standard)

The lyrics to this tune are impossible. they involve shame, games, and PCP or
something, I don't believe anyone knows or ever will. whatever.
have a tab.

i only tabbed the first solo so far, i'll find time for the others soon!!

Intro/main chords: E - F#m - D - F#m
(2 beats each, play it ska stylee, root notes all up A string)

Intro solo (0:00 - 0:18)
e|--------------------------------------------------------------|
B|-------------------------10-----------------------------------|
G|--11+^14--11~----11p9-11------9h11p9----9---------------------|
D|-------------------------------------11---9^11----------------|
A|------------------------------------------------9-11-9-11-9~--|
E|--------------------------------------------------------------|

e|--------------------------12-------12-------12-------12-------12-----------|
B|-----------------10-12^14----12^14----12^14----12^14----12^14----12^14^12--|
G|----------9-11-9-----------------------------------------------------------|
D|-----9-11------------------------------------------------------------------|
A|-7/9-----------------------------------------------------------------------|
E|---------------------------------------------------------------------------|

e|----12-12/14---14-14-14--14-14-14-17p15p14----14--------------------------------------------|
B|-12------------14-14-14--14-14-14----------14-----12^14^12---------------------12^14^12-10--|
G|-----------------------------------------------------------14--------9-11-9-11--------------|
D|----------------------------------------------------------------9-11------------------------|
A|--------------------------------------------------------------------------------------------|
E|--------------------------------------------------------------------------------------------|

e|---------------------------------------------------------------|
B|------------------10-----------10---------10-------10~10~------|
G|-------------9h11----11---9h11-----9-9h11-----9h11--------11\--|
D|-----7---7-9---------------------------------------------------|
A|-7h9---9-------------------------------------------------------|
E|---------------------------------------------------------------|

Verse:
there is a F#m (root 2nd fret E string) strummed pretty constantly, until
the G note is hit by the bass - strum 1 G barre chord.
the bass riff is solid, sometimes the guitar plays along, throw in improv:
e|-----------------------------------|
B|-----------------------------------|
G|-----------------------------------|
D|-----------------------------------|
A|---------4------------------4------|
E|--2-0-2-----2--------2-0-2----3~---|

The end of the verse is power chords, 1 hit each: F#5 - E5 - D5 - Db5
then right on back into the main progression.


Then she fades out over the main chords.

One of my favorite tunes from Everything Under the Sun, which any true Sublime fan is 
to purchase. Bradley and HR (of Bad Brains) are classic here.
Have fun, stay away from the crack.

RIP Brad n' Lou

| /  slide up
| \  slide down
| h  hammer-on
| p  pull-off
| ^  bend
| ~  vibrato
| +  harmonic (artificial in this tune)
| x  Mute note
===============================================================================
Tap to rate this tab
# A B C D E F G H I J K L M N O P Q R S T U V W X Y Z