Song name
# A B C D E F G H I J K L M N O P Q R S T U V W X Y Z

Submerged - Take Back tab

this tab by kilyer
i got this tab from the band themselves.if your reading this tab and think submerged 
even have a song called take back...thats because there are a couple bands called 
one is a christian band.hope you enjoy the song.

Verse:
e|----------------------------|
B|----------------------------|
G|--10--------8----6----------|
D|--10---10---8----6----------|
A|--8----11---6----4----------|
E|----------------------------| x3 first verse, x4 second verse

Pre-chorus:
e|------------------------------|
B|------------------------------|
G|----------8-------------------|
D|--3---6---8---8---------------|
A|--3---6---6---8---------------|
E|--1---4-------6---------------| x2

Chorus:
e|------------------------------|
B|------------------------------|
G|--5---8-----------------------|
D|--5---8---8---3---------------|
A|--3---6---8---3---------------|
E|----------6---1---------------| x4

Bridge:
e|------------------------------|
B|------------------------------|
G|------------------------------|
D|----6---8---------------------|
A|----6---8---------------------|
E|----4---6---------------------| x3
Tap to rate this tab
# A B C D E F G H I J K L M N O P Q R S T U V W X Y Z