Song name
# A B C D E F G H I J K L M N O P Q R S T U V W X Y Z

Suede - Bored tab

t. See http://www.olga.net/faq/ for more information.                     #
#-----------------------------------------------------------------------------#

From: AAuuddee@aol.com
Date: Tue, 29 Feb 2000 15:19:51 EST
Subject: s/suede/bored.tab


BORED by Suede (from She's in fashion B-side)
---------------------------------------------

Tabbed by AAuuddee@aol.com


INTRO:
--4--4--4--4--4--4--4--
-----4--4--4--4--4--4--
-----------------------
-----------------------
-----------------------
-----------------------

play this FILL1 along the intro:
(while the chords are played)
---------------
---------------
--8--8--8--8s--
--6--6--6--6s--
---------------
---------------

Ab / F# / F / E (x3)

  B      Db       Ab =20
----------------
--12--9--14--9--
----------------
----------------
----------------
----------------


VERSE1:

play this FILL1 along:
(while the chords are played)
---------------
---------------
--8--8--8--8s--
--6--6--6--6s--
---------------
---------------

Ab / F# / F / E (x3)

B  / Db / Ab


CHORUS:

E / F# / A / B (x2)

Ab / F# / F / E

  B      Db       Ab 
----------------
--12--9--14--9--
----------------
----------------
----------------
----------------


VERSE2: same as verse1


CHORUS


BRIDGE: play FILL1 only and then:

  B      Db       Ab =20
----------------
--12--9--14--9--
----------------
----------------
----------------
----------------=20


CHORUS


ENDING:

Ab5 / F#5 / F5 / E5 (x3) with FILL1

------------------
--s11--11--11b12--
------------------
------------------
------------------
------------------

  B      Db       Ab(xx13/13/13/11)
----------------
--12--9--14--9--
----------------
----------------
----------------
----------------


ENJOY!!
Tap to rate this tab
# A B C D E F G H I J K L M N O P Q R S T U V W X Y Z