Song name
# A B C D E F G H I J K L M N O P Q R S T U V W X Y Z

Suffocation - Infecting The Crypts tab

"Suffcation"
"Infecting The Crypts"
Album: "Human Waste / Effigy of the Forgotten"

" - tremolo             h - hammer on
~ - vibrato             \ - slide down
p - pull off            / - slide down
tr - tremolo picking     ^ - pinch harmonics
= - sustained note      b - bend string
p.m. - palm muting         t - tapping

Tuning (low to high): C,F,Bb,eb,g,c

[Intro]
||-------------|-------------|-------------|-------------||
||-------------|-------------|-------------|-------------||
||-------------|-------------|-------------|-------------||
||-------4--3--|-------------|-------4--3--|-------------||
||-4--5--2--1--|-4--3--2--3--|-4--5--2--1--|-4--3--2--3--||
||-2--3--------|-2--1--0--1--|-2--3--------|-2--1--0--1--||
                               .  .  .  .    .  .  .  .
[Part 1 (x2)]
||----------------------------------|-----------------------------------|
||----------------------------------|-----------------------------------|
||----------------------------------|-----------------------------------|
||-------------------------22223333-|-----------------------------------|
||---------2222333311111111---------|---------2222333331111--------3333-|
||-11111111-------------------------|-11111111-------------11112222-----|

----------------------------------|-----------------------------------||
----------------------------------|-----------------------------------||
----------------------------------|-----------------------------------||
-------------------------22223333-|----------------------3333---------||
---------2222333311111111---------|---------2222333331111----2222-----||
-11111111-------------------------|-11111111---------------------3333-||

[Part 2 (x2)
||----------------------------------|----------------------------------||
||----------------------------------|----------------------------------||
||----------------------------------|----------------------------------||
||---------------------33332222-----|----------------------------------||
||---------4444----4444--------3333-|---------4444----4444444433333333-||
||-33333333----5555-----------------|-33333333----5555-----------------||

[PART 1] [PART 2]

[Outro 1]
||----------------------------------|----------------------------------||
||----------------------------------|----------------------------------||
||----------------------------------|----------------------------------||
||---------------------33332222-----|------------------6---5-----------||
||---------4444----4444--------3333-|---------4444-----4---3---5---4---||
||-33333333----5555-----------------|-33333333----5555---------3---2---||
                                                       .   .   .   .

[Part 3 (x7)]
||-------------|---------------|-------------|---------------||
||-------------|---------------|-------------|---------------||
||-------------|---------------|-------------|---------------||
||-------------|---------------|-------------|---------------||
||-4-4-4-5-5-5-|-3-33-3-3-33-3-|-4-4-4-5-5-5-|-3-33-3-3-33-3-||
||-2-2-2-3-3-3-|-1-11-1-1-11-1-|-2-2-2-3-3-3-|-1-11-1-1-11-1-||
                 . .. . . .. .                 . .. . . .. .

[Outro 2]
||----------------------------------|----------------------------------|
||----------------------------------|----------------------------------|
||----------------------------------|----------------------------------|
||-----------------4444-------------|-----------------3333-------------|
||-----333322223333----333322223333-|-----333322223333----222211112222-|
||-4444-----------------------------|-4444-----------------------------|
|                                   |
||----------------------------------|----------------------------------|
||----------------------------------|----------------------------------|
||----------------------------------|-----------------5----------------|
||----------------------------------|-----------------3---4---3---4----|
||-6--------------------------------|-6-------------------2---1---2----|
||-4--------------------------------|-4--------------------------------|
   .                                  .               .   .   .   .

----------------------------------|----------------------------------||
----------------------------------|----------------------------------||
----------------------------------|----------------------------------||
-----------------4444-------------|----------------------------------||
-----333322223333----333322223333-|-----33332222333311112222---------||
-4444-----------------------------|-4444--------------------33334444-||
                                  |                                   |
----------------------------------|----------------------------------||
----------------------------------|----------------------------------||
----------------------------------|----------------------------------||
----------------------------------|-----------------3---4------------||
-6--------------------------------|-6---------------1---2---5---6----||
-4--------------------------------|-4-----------------------3---4----||
 .                                  .               .   .   .   .

[Part 4 (x2)]
||----------------------------------|----------------------------------|
||----------------------------------|----------------------------------|
||----------------------------------|----------------------------------|
||-----------------4444-------------|-----------------3333-------------|
||-----333322223333----333322223333-|-----333322223333----222211112222-|
||-4444-----------------------------|-4444-----------------------------|

----------------------------------|----------------------------------||
----------------------------------|----------------------------------||
----------------------------------|----------------------------------||
-----------------4444-------------|----------------------------------||
-----333322223333----333322223333-|-----33332222333311112222---------||
-4444-----------------------------|-4444--------------------33334444-||

[Part 5a]
||---------------------------------|---------------------------------||
||---------------------------------|---------------------------------||
||---------------------------------|---------------------------------||
||---------------------------------|-----------------------------4h5-||
||-2-2-5p4-----5p4-----5p4-----5p4-|-2-2-5p4-----5p4-----5p4---------||
||---------6-6-----6-6-----6-6-----|---------6-6-----6-6-----6-6-----||
|  . .     . .     . .     . .     | . .     . .     . .     . .     ||
||---------------------------------|---------------------------------||
||---------------------------------|---------------------------------||
||---------------------------------|---------------------------------||
||---------------------------------|-----------------------------4h5-||
||-2-2-5p4-----5p4-----5p4-----5p4-|-2-2-5p4-----5p4-----5p4---------||
||---------6-6-----6-6-----6-6-----|---------6-6-----6-6-----6-6-----||
   . .     . .     . .     . .

[Part 5b]
||---------------------------------|---------------------------------||
||---------------------------------|---------------------------------||
||---------------------------------|---------------------------------||
||---------------------------------|-----------------------------4h5-||
||-2-2-5p4-----5p4-----5p4-----5p4-|-2-2-5p4-----5p4-----5p4---------||
||---------6-6-----6-6-----6-6-----|---------6-6-----6-6-----6-6-----||
|  . .     . .     . .     . .     | . .     . .     . .     . .      |
||---------------------------------|---------------------------------||
||---------------------------------|-----------------------------7h8-||
||-4-4-7p6-----7p6-----7p6-----7p6-|-4-4-7p6-----7p6-----7p6---------||
||---------8-8-----8-8-----8-8-----|---------8-8-----8-8-----8-8-----||
||---------------------------------|---------------------------------||
||---------------------------------|---------------------------------||
   . .     . .     . .     . .       . .     . .     . .     . .

[Part 6 (x2)] /both guitars/
||------------------------------------------------------------------||
||------------------------------------------------------------------||
||------------------------------------------------------------------||
||------------------------------------------------------------------||
||----------5-4-2-4-8-------8-------7-------7-------3-------4-3-1-3-||
||-22222222----------555555--555555--444444--444444--000000---------||
            . . . .                                         . . . .

[Outro 3]
||-----------|
||-----------|
||-----------|
||-5----4----|
||-5----4----|
||-3----2----|

[PART 5a] [PART 5b] [PART 6 (x2)] [OUTRO 3]

[Part 7 (x4)]
||-------------------------|---------------------------|
||-------------------------|---------------------------|
||-------------------------|---------------------------|
||-------------------------|---------------------------|
||-4---4---5---3---3---3---|-4---4---5---3---3---3-----|
||---2---2---3---1---1---1-|---2---2---3---1---1---1---|
   . . . . . . . . . . . .   . . . . . . . . . . . .

-------------------------|-------------------------||
-------------------------|-------------------------||
-------------------------|-------------------------||
-------------------------|-------------------------||
-4---4---5---3---3---3---|-2---3---2---6---7---6---||
---2---2---3---1---1---1-|---0---0---0---4---4---4-||
 . . . . . . . . . . . .   . . . . . . . . . . . .

[PART 4 (x2) /under solo/] [PART 2]

[Outro 1]
||----------------------------------|----------------------------------||
||----------------------------------|----------------------------------||
||----------------------------------|----------------------------------||
||---------------------33332222-----|------------------6---5-------4==-||
||---------4444----4444--------3333-|---------4444-----4---3---5---2==-||
||-33333333----5555-----------------|-33333333----5555---------3-------||

[Part 8 (x4)
||-------------------------|-------------------------|
||-------------------------|-------------------------|
||-------------------------|-------------------------|
||-3-----3-----3-----4-----|-3-----3-----------------|
||-1-4-3-1-4-3-1-4-3-2-5-4-|-1-4-3-1-4-3-3-4-5-4-3-2-|
||---2-1---2-1---2-1---3-2-|---2-1---2-1-1-2-3-2-1-0-|
   . . . . . . . . . . . .   . . . . . . . . . . . .

-------------------------|-------------------------||
-------------------------|-------------------------||
-------------------------|-------------------------||
-3-----3-----3-----4-----|-8-7-------7-6-----5-----||
-1-4-3-1-4-3-1-4-3-2-5-4-|-6-5-7-6-7-5-4-7-6-3-6-5-||
---2-1---2-1---2-1---3-2-|-----5-4-5-----5-4---4-3-||
 . . . . . . . . . . . .   . . . . . . . . . . . .

[Part 9 (x2)]
||-----------------------------------------------------------------------|
||-----------------------------------------------------------------------|
||-----------------------------------------------------------------------|
||-7-----8-7-----8-7-----8-----6-5-7-----8-7-----8--------7-7--------6-6-|
||-5-7-8-6-5-7-8-6-5-7-8-6-5-4-4-3-5-7-8-6-5-7-8-6--------5-5--------4-4-|
||---5-6-----5-6-----5-6---3-2-4-3---5-6-----5-6---555555-5-5-555555-4-4-|
   . . . . . . . . . . . . . . . . . . . . . . . . ......     ......

-----------------------------------------------------------------||
-----------------------------------------------------------------||
-----------------------------------------------------------------||
-7-----8-7-----8-7-----8-----6-5-7-----8-7-----8-----7-6-6---6-5-||
-5-7-8-6-5-7-8-6-5-7-8-6-5-4-4-3-5-7-8-6-5-7-8-6-6-7-5-4-4-4-4-3-||
---5-6-----5-6-----5-6---3-2-4-3---5-6-----5-6---4-5-5-4-4-2-4-3-||
 . . . . . . . . . . . . . . . . . . . . . . . . . . . . . . . .

[Bass solo]
||----------------------------|-----------------------------------||
||----------------------------|-----------------------------------||
||----------------------------|-----------------------------------||
||----------------------------|--------------------------------3--||
||-3--------------------------|--------------------------------1--||
||-1--------------------------|----------------------------0-1----||
|  .                          |                            . .     |
||----------------2h3p2-------|----------------2h3p2--------------||
||----------2--1--------2--3--|----------2--1----------2---3------||
||----3--2--------------------|----3--2---------------------------||
||-1--------------------------|-1---------------------------------||

[Part 10]
||-----------------------------------------------------------------|
||-----------------------------------------------------------------|
||---------------------3333----------------------------3333--------|
||-------------22221111----22223333------------22221111------------|
||-----33332222------------------------33332222-----------------2--|
||-1111----------------------------1111---------------------2-1-0--|
                                                           . .
-----------------------------------------------------------------|
-----------------------------------------------------------------|
---------------------3333----------------------------3333--------|
-------------22221111----22223333------------22221111---------3--|
-----33332222------------------------33332222-----------------1--|
-1111----------------------------1111---------------------0-1----|
                                                           . .
--------------------------------------------------------------------||
--------------------------------------------------------------------||
---------------------3333----------------------------3333-----------||
-------------22221111----22223333------------22221111---------------||
-----33332222------------------------33332222-----------------2--4--||
-1111----------------------------1111---------------------2-1-0--2--||
                                                          . .    .
Tap to rate this tab
 
# A B C D E F G H I J K L M N O P Q R S T U V W X Y Z