Song name
# A B C D E F G H I J K L M N O P Q R S T U V W X Y Z

Sufjan Stevens - Enchanting Ghost chords

Highlighted       Show chord diagrams
Sufjan Stevens Ė Enchanting Ghost

tabbed by: Rob
email: u_rmaher@umassd.edu


F                 G
Tell me what you saw in me
Dm                            G
And Iíll try to replicate it with a scene

Mm-mmm 
F               G
If it troubles you to breathe
Dm                                 G
Wait a moment; I could change the scenery

F                                   G
Donít carry on carrying efforts, no no, oh oh oh oh
Dm                                   G
Somewhere thereís a room for each of us to grow
           F                            G
And if it pleases you to leave me, just go, oh oh oh oh
Dm                                 G
Stopping you would stifle your enchanting ghost

Mm-mmm

Electric guitar:
  F                G                Dm               G
E|5-5-----3s1-----|3---------------|----1-3s5-3-1---|3---------------|
B|----------------|----3---3-------|3-3-----------3-|--3-3------1h3p1|

F                 G
Itís only that I meant to bring
Dm                                 G
Love and liveliness to your breast on the scene

Mm-mmm

F                 G
Did you cut your hands on me?
Dm                          G
Are my edges sharp? Am I a pest to feed?

(piano comes in)
F                                   G
Donít carry on carrying regrets, oh no, oh oh oh oh
Dm                                  G
Somewhere thereís a room for us to speak alone
F                                        G
And if it grieves you to stay here, just go, oh oh oh oh
Dm                               Em
For I have no spell on you, itís all a ghost

Mm-mmm

(instrumental)
F G Dm Em F G

F                 G
I still have the things you gave...me
Dm                              G
Four anointing oils, the paper weight you made

Mm-mmm 

F                   G
For sure I havenít carried them
Dm                                  G
Or buried them in the name of your ghost, my friend

F                                      G
Donít carry on carrying efforts; Donít go! No oh oh oh
Dm                          G
Stay with me until I sleep within your host
F                                      G
Or if it pleases you to leave me, just go, oh oh oh oh
Dm                                 G
Stopping you would stifle your enchanting ghost

Mm-mmm

F G Dm G

          Picking Pattern
F:
|------1-------1-|------1-------1-|
|--1-------1-----|--1-------1-----|
|----2-------2---|----2-------2---|
|----------------|----------------|
|3-------3-------|3-------3-------|
|----------------|----------------|

G:
|------3-------1-|------8p5-----3p1  <-variations
|--0-------0-----|--0-------0-----|
|----0-------0---|----0-------0---|
|0-------0-------|0-------0-------|
|----------------|----------------|
|----------------|----------------|

Dm:
|------1-------1-|------1-------1-|
|--3-------3-----|--3-------3-----|
|----2-------2---|----2-------2---|
|0-------0-------|0-------0-------|
Tap to rate this tab
 
# A B C D E F G H I J K L M N O P Q R S T U V W X Y Z