Song name
# A B C D E F G H I J K L M N O P Q R S T U V W X Y Z

Sufjan Stevens - Jacksonville tab

-------------------------------------------------------------------------------
                             Jacksonville - Sufjan Stevens
-------------------------------------------------------------------------------
Tabbed by: DuncanAC
Email:

Tuning: Standard. Capo: 3rd fret.

Intro (faint guitar)
    D              Bm              F            Am7
e|---------------------------------------------------------------------------|
B|-----------1-3---0--------------------------------1---1--------------------|
G|-----0-2-----------------0-2-----------0----0-------0----------------------|
D|--------------------0-2-----------0-0-0-0h2--0h2---------------------------|
A|---------------------------------------------------------------------------|
E|---------------------------------------------------------------------------|

Main riff:
    D              Bm              F            Am7
e|-2-0-----------------------------------------------------------------------|
B|-----3-0------------------------------------------1---1--------------------|
G|---------2------------0-2---------------0-----------0----------------------|
D|-----------------0-2-------------------0--0--0h2---------------------------|
A|---------------------------------0-3---------------------------------------|
E|---------------------------------------------------------------------------|

    D              Bm              F            Am7
e|-2-0-----------------------------------------------------------------------|
B|-----3-0-------------------------------------1---------1-------------------|
G|---------2-----------0-2----------------0---------0------------------------|
D|-----------------0-2------------------0---0---0h2---0h2---0----------------|
A|---------------------------------0-3---------------------------------------|
E|---------------------------------------------------------------------------|

"I'm not afraid..."

    D              Bm              F            Am7
e|-2-0-----------------------------------------------------------------------|
B|-----3-0---------------------------------------1--------1------------------|
G|---------2-----------0-----0-----------------------------------------------|
D|-----------------0h2---0h2-----------------0h2----0h2h0---0h2-2-0----------|
A|--------------------------------------0h3----------------------------------|
E|---------------------------------------------------------------------------|



So that's the main jist of it anyway. There are a couple of subtle variations on that 
riff throughout the song but that's it more or less the whole way through.

Enjoy!

************************************

| /   slide up
| \   slide down
| h   hammer-on
| p   pull-off
| ~   vibrato
| +   harmonic
| x   Mute note
| b   Bend
| pb  Pre-bend
| br  Bend release
| pbr Pre-bend release
| brb Bend release bend

************************************
Tap to rate this tab
# A B C D E F G H I J K L M N O P Q R S T U V W X Y Z