Song name
# A B C D E F G H I J K L M N O P Q R S T U V W X Y Z

Sufjan Stevens - Wolverine tab

Capo 5th-Standard Tuning

e|-------0---------|
B|---------0-------|
G|-----0-----0-----|x4
D|---3-------------|
A|-5---------------|
E|-----------------|



e|-------0---------|
B|---------3-------|
G|-----0---0-------|x4
D|---2-------------|
A|-3---------------|
E|-----------------|
Tap to rate this tab
# A B C D E F G H I J K L M N O P Q R S T U V W X Y Z