Song name
# A B C D E F G H I J K L M N O P Q R S T U V W X Y Z

Sugababes - New Year tab

============================
NEW YEAR (SUGABABES)
from the album 'One Touch'
============================
===================
tabbed by [paul-m]
===================

Main Riff

   E        B    A
E------------------------|
a------------------------|
d------------------------|
g-----------8----6-------|
b---7h9------------------|
e------------------------|

Bass bit that follows can be played as

E------------------------|
a--2-2--4-----4----------|
d----------2-------------|
g------------------------|
b------------------------|
e------------------------|
Tap to rate this tab
# A B C D E F G H I J K L M N O P Q R S T U V W X Y Z