Song name
# A B C D E F G H I J K L M N O P Q R S T U V W X Y Z

Sugar Ray - Waiting tab

-------------------------------------------------------------------------------
			    Waiting - Sugar Ray
-------------------------------------------------------------------------------
Tabbed by:Sugar-Ray-tabs
Email:drums-barker@hotmail.fr

Tuning:standar

Intro acoustic guitar
e|---------------------------------------------------------|
B|---------------------------------------------------------|
G|------------6-6------------------------6-6----------6 ---|
D|------------4-6--4-4-------------------4-6--------4 --4--|
A|4/6\4-2-------4--2---4-2---4/6\4-2-2-----4--2/4-4--------|
E |--------2---------------------------2-------------------|

e|----------------------------------------------------------------------------------|
B|---------------7------------------------------------------------------------------|
G|------------4--6----------- ----------6------------- -----------------------------|
D|------------4--6-4-------4---------4------------- --------------------------------|
A|4/6\4-2-----2------2---4---4-----4------------------------------------------------|
E |--------2-----------2-------4-2--------------------------------------------------|

Intro electric guitar (chorus)
e|--------------------------------------------------------------------------------------|
B|--------------------------------------------------------------------------------------|
G|------------6-6------------------------6-6----------6 --------------------------------|
D|------------4-6--4-4-------------------4-6--------4 --4-------------------------------|
A|4/6\4-2-------4--2---4-2---4/6\4-2-2-----4--2/4-4-------------------------------------|
E |--------2---------------------------2------------------------------------------------|

e|--------------------------------------------------------------------------------------|
B|---------------7----------------------------------------------------------------------|
G|------------4--6----------- ---------6--------6--6-6--- ------------------------------|
D|------------4--6-4-------4---------4-------4--6--6-6-- -------------------------------|
A|4/6\4-2-----2------2---4---4-----4---------4--4--4-4----------------------------------|
E |--------2-----------2-------4-2-----------2------------------------------------------|

verse1
e|-----------------------------------------------------------------------------------|
B|-----------------------------------------------------------------------------------|
G|----6-------6-------6-------6------------------------------------------------------|
D|--4---4---4---4---4---4---4---4--X8------------------------------------------------|
A|-4------4-------6-------6----------------------------------------------------------|
E|-----------------------------------------------------------------------------------|

interlude
e|---------------------------------|
B|---------------------------------|
G|---------------------------------|
D|11-11-11-11-9--9-9--9-4--4--4-4--|
A|11-11-11-11-9--9-9--9-4--4--4-4--|
E|9--9--9--9--7--7-7--7-2--2--2-2--|

 (chorus)
e|--------------------------------------------------------------------------------------|
B|--------------------------------------------------------------------------------------|
G|------------6-6------------------------6-6----------6 --------------------------------|
D|------------4-6--4-4-------------------4-6--------4 --4-------------------------------|
A|4/6\4-2-------4--2---4-2---4/6\4-2-2-----4--2/4-4-------------------------------------|
E |--------2---------------------------2------------------------------------------------|

e|--------------------------------------------------------------------------------------|
B|---------------7----------------------------------------------------------------------|
G|------------4--6----------- ---------6--------6--6-6--- ------------------------------|
D|------------4--6-4-------4---------4-------4--6--6-6-- -------------------------------|
A|4/6\4-2-----2------2---4---4-----4---------4--4--4-4----------------------------------|
E |--------2-----------2-------4-2-----------2------------------------------------------|

verse
e|-----------------------------------------------------------------------------------|
B|-----------------------------------------------------------------------------------|
G|----6-------6-------6-------6------------------------------------------------------|
D|--4---4---4---4---4---4---4---4--X8------------------------------------------------|
A|-4------4-------6-------6----------------------------------------------------------|
E|-----------------------------------------------------------------------------------|

interlude
e|--------------------------------------------------------------------------------------|
B|--------------------------------------------------------------------------------------|
G|--------------------------------------------------------------------------------------|
D|11-11-11-11-9--9-9--9-4--4--4-4-------------------------------------------------------|
A|11-11-11-11-9--9-9--9-4--4--4-4-------------------------------------------------------|
E|9--9--9--9--7--7-7--7-2--2--2-2-------------------------------------------------------|

 (chorus)
e|--------------------------------------------------------------------------------------|
B|--------------------------------------------------------------------------------------|
G|------------6-6------------------------6-6----------6 --------------------------------|
D|------------4-6--4-4-------------------4-6--------4 --4-------------------------------|
A|4/6\4-2-------4--2---4-2---4/6\4-2-2-----4--2/4-4-------------------------------------|
E |--------2---------------------------2------------------------------------------------|

e|--------------------------------------------------------------------------------------|
B|---------------7----------------------------------------------------------------------|
G|------------4--6----------- ---------6--------6--6-6--- ------------------------------|
D|------------4--6-4-------4---------4-------4--6--6-6-- -------------------------------|
A|4/6\4-2-----2------2---4---4-----4---------4--4--4-4----------------------------------|
E |--------2-----------2-------4-2-----------2------------------------------------------|


e|-----------------------------------------------------------|
B|-----------------------------------------------------------|
G|-4--4--4-4-4-4---------------------------------------------|
D|-4--4--4-4-4-4--6--6--6-6-6-6--4--4--4-4--4--4--4-4--------|
A|-2--2--2-2-2-2--6--6--6-6-6-6--4--4--4-4--4--4--4-4----X4--|
E|----------------4--4--4-4-4-4--2--2--2-2--2--2--2-2--------|

e|--------------------------------------------------------------------------------------|
B|--------------------------------------------------------------------------------------|
G|------------6-6------------------------6-6----------6 --------------------------------|
D|------------4-6--4-4-------------------4-6--------4 --4-------------------------------|
A|4/6\4-2-------4--2---4-2---4/6\4-2-2-----4--2/4-4-------------------------------------|
E |--------2---------------------------2------------------------------------------------|

e|---------------------------------------------------------------------------------------|
B|---------------7-----------------------------------------------------------------------|
G|------------4--6----------- ---------6--------6--6-6--6 -------------------------------|
D|------------4--6-4-------4---------4-------4--6--6-6--6 -------------------------------|
A|4/6\4-2-----2------2---4---4-----4---------4--4--4-4--4--------------------------------|
E |--------2-----------2-------4-2-----------2-------------------------------------------|

************************************

| /   slide up
| \   slide down
| h   hammer-on
| p   pull-off
| ~   vibrato
| +   harmonic
| x   Mute note
| b   Bend
| pb  Pre-bend
| br  Bend release
| pbr Pre-bend release
| brb Bend release bend
Tap to rate this tab
 
# A B C D E F G H I J K L M N O P Q R S T U V W X Y Z