Guitaretab - guitar tabs
Song name
# A B C D E F G H I J K L M N O P Q R S T U V W X Y Z
Home / S / Sugar Ray / Fly tab

Sugar Ray - Fly tab

Tune guitar 1/2 down  
(Eb, Ab, Db, Gb, Bb, Eb)



Intro


Eb---5-5---5-5-5------------|
Bb---5-5---5-5-5------------|
Gb---6-6---7-7-7------------|(play it 12 times)
Db---7-7---7-7-7------------|
Ab---7-7--------------------|
Eb--------------------------|


Fill 1  
(lead guitar)

  
Eb----------------------------------------------------------------------|
Bb-17-17-17-17--15-15-15-15--14-14-14-14-10-10-10-10---10-8-7-8-8/10----|
Gb-18-18-18-18--16-16-16-16--14-14-14-14--9--9--9--9bę--9-7-6-7-7/9-----|  
Db----------------------------------------------------------------------|
Ab----------------------------------------------------------------------|
Eb----------------------------------------------------------------------|


Eb----------------------------------------------------------------------|
Bb-17-17-17-17--15-15-15-15--14-14-14-14-10-10-10-10---10-8-7-8-8/10----|
Gb-18-18-18-18--16-16-16-16--14-14-14-14--9--9--9--9bę--9-7-6-7-7/9-----|  
Db----------------------------------------------------------------------|
Ab----------------------------------------------------------------------|
Eb----------------------------------------------------------------------|

Eb---------------------|
Bb--8-7-8-7-5-5--------|
Gb--7-6-7-6-4-4--------|  
Db---------------------|
Ab---------------------|
Eb---------------------|



Verse


  All around the world....
Eb---5-5---5-5-5------------|
Bb---5-5---5-5-5------------|
Gb---6-6---7-7-7------------|(play it 8 times)
Db---7-7---7-7-7------------|
Ab---7-7--------------------|
Eb--------------------------|



Chorus

  I just want to fly....
Eb---5-5---5-5-5------------|
Bb---5-5---5-5-5------------|
Gb---6-6---7-7-7------------|(play it 8 times)
Db---7-7---7-7-7------------|
Ab---7-7--------------------|
Eb--------------------------|


Eb----------------------------------------------------------------------|
Bb-17-17-17-17--15-15-15-15--14-14-14-14-10-10-10-10---10-8-7-8-8/10----|
Gb-18-18-18-18--16-16-16-16--14-14-14-14--9--9--9--9bę--9-7-6-7-7/9-----|  
Db----------------------------------------------------------------------|
Ab----------------------------------------------------------------------|
Eb----------------------------------------------------------------------|

Eb---------------------|
Bb--8-7-8-7-5-5--------|
Gb--7-6-7-6-4-4--------|  
Db---------------------|
Ab---------------------|
Eb---------------------|


Verse



Chorus
[ Tab from: http://www.guitaretab.com/s/sugar-ray/18685.html ]
  I just want to fly....
Eb---5-5---5-5-5------------|
Bb---5-5---5-5-5------------|
Gb---6-6---7-7-7------------|(play it 8 times)
Db---7-7---7-7-7------------|
Ab---7-7--------------------|
Eb--------------------------|


     I just want to fly....
Eb---7-------5----------5-5--5-5-5---5-5--5-5-5-----|
Bb---7-------5----------5-5--5-5-5---5-5--5-5-5-----|
Gb---9-------7----------6-6--7-7-7---6-6--7-7-7-----|(play it 2 times)
Db---9-------7----------7-7--7-7-7---7-7--7-7-7-----|
Ab----------------------7-7----------7-7------------|
Eb--------------------------------------------------|




Bridge


Eb-------------------5-5---------|
Bb-------------------------------|
Gb--2-2-2-2-2-2-2----------------|(play it 8 times)
Db--2-2-2-2-2-2-2----------------|
Ab--0-0-0-0-0-0-0----------------|
Eb-------------------------------|
   ^^^^^^PM^^^^^^^ 


Fill 2  
(acoustic guitar)

Eb--------------------------------------------------|
Bb---13--14--13--11---13--14--13--11----------------|
Gb---13--15--13--12---13--15--13--12----------------|  
Db--------------------------------------------------|
Ab--------------------------------------------------|
Eb--------------------------------------------------|



Verse



Chorus

 I just want to fly....
Eb---5-5---5-5-5------------|
Bb---5-5---5-5-5------------|
Gb---6-6---7-7-7------------|(play it 8 times)
Db---7-7---7-7-7------------|
Ab---7-7--------------------|
Eb--------------------------|


     I just want to fly....
Eb---7-------5----------5-5--5-5-5---5-5--5-5-5-----|
Bb---7-------5----------5-5--5-5-5---5-5--5-5-5-----|
Gb---9-------7----------6-6--7-7-7---6-6--7-7-7-----|(play it 2 times)
Db---9-------7----------7-7--7-7-7---7-7--7-7-7-----|
Ab----------------------7-7----------7-7------------|
Eb--------------------------------------------------|


Fill 3  
(guitar at back)

Eb---------------------------------------|
Bb---7---5h7h5-----10--5-----------------|
Gb--------------6------------------------|(play it 4 times)
Db---------------------------------------|
Ab---------------------------------------|
Eb---------------------------------------|

End

Eb---5-5---5-5-5------------|
Bb---5-5---5-5-5------------|
Gb---6-6---7-7-7------------|(play it until the end)
Db---7-7---7-7-7------------|
Ab---7-7--------------------|
Eb--------------------------|


Notation:

^PM^ = palm muting
/    = slide
bę   = bend half step
h    = hammer on
Related for Fly tab