Song name
# A B C D E F G H I J K L M N O P Q R S T U V W X Y Z

Sugarcoma - What Goes Around tab

Band=SUGARCOMA
Song name=What Goes Around 
Albem: Becoming something 

Tabbed by Stuart Cowie
cow_man81@hotmail.com

Tuning - Drop D


  Intro 
}-------{

E|------------------------------|------------------------------|
B|------------------------------|------------------------------|
G|------------------------------|------------------------------|
D|-223-----223-----223-----|---223-----223-----223----|
A|-223-----223-----223-----|---223-----223-----223----|
D|-223-----223-----223-----|---223-----223-----223----|

  Then play this
}------------------{
E|-------------------|
B|-------------------|
G|-------------------|
D|-223---3333----|   x4
A|-223---3333----|
D|-223---3333----|

  Verse
}--------{

(Clean guitar with some reverb)

E|-----------------------------|
B|-----------------------------|
G|-----------------------------|
D|-----------------------------|   x6
A|---9-------8----------------|
D|-----------------------------| Chorus
}--------{

E|-------------------------------------|
B|-------------------------------------|
G|-------------------------------------|
D|--00000000---3333---55---22--|   x5
A|--00000000---3333---55---22--|
D|--00000000---3333---55---22--|E|-----------------------------|
B|-----------------------------|
G|-----------------------------|
D|-----------------------------|   x6
A|---9-------8----------------|
D|-----------------------------|

 Chorus
}--------{

E|-------------------------------------|
B|-------------------------------------|
G|-------------------------------------|
D|--00000000---3333---55---22--|   x5
A|--00000000---3333---55---22--|
D|--00000000---3333---55---22--|

E|------------------------------|------------------------------|
B|------------------------------|------------------------------|
G|------------------------------|------------------------------|
D|-223-----223-----223-----|---223-----223-----223----|
A|-223-----223-----223-----|---223-----223-----223----|        x2
D|-223-----223-----223-----|---223-----223-----223----|

E|-----------------------------|
B|-----------------------------|
G|-----------------------------|
D|-----------------------------|   x3
A|---9-------8----------------|
D|-----------------------------|


 Chorus
}--------{

E|-------------------------------------|
B|-------------------------------------|
G|-------------------------------------|
D|--00000000---3333---55---22--|   x8
A|--00000000---3333---55---22--|
D|--00000000---3333---55---22--|

E|------------------------------|-----------------------------------------------|
B|------------------------------|-----------------------------------------------|
G|------------------------------|-----------------------------------------------|
D|-223-----223-----223-----|---223-----223-----223----223----223----|          
A|-223-----223-----223-----|---223-----223-----223----223----223----|
D|-223-----223-----223-----|---223-----223-----223----223----223----|

 End
}----{
E|-----------------------------|
B|-----------------------------|
G|-----------------------------|
D|-----------------------------| 
A|---9-------------------------|
D|-----------------------------|
Tap to rate this tab
 
# A B C D E F G H I J K L M N O P Q R S T U V W X Y Z