Song name
# A B C D E F G H I J K L M N O P Q R S T U V W X Y Z

Sum 41 - No Sleep Till Brooklyn tab

#----------------------------------PLEASE NOTE---------------------------------#
#This file is the author's own work and represents their interpretation of the #
#song. You may only use this file for private study, scholarship, or research. #
#------------------------------------------------------------------------------##

Title: 		No Sleep Till Brooklyn
Band: 		Sum 41 with Motley Crue
Album:		Lost: Have u seen this album?
Words:		Don't care
Transcribed By:	David Rojas
My Email:	kahunaka@hotmail.com
Missing:	I Don't Think Anything

play 3x
E|-----------------------------------------------------------|
B|-----------------------------------------------------------|
G|-----------------------------------------------------------|
D|-2-2---5--7---9/5------------------------------------------|
A|-2-2---5--7---9/5------------------------------------------|
E|-0-0---3--5---7/3------------------------------------------|

play                    |play after the second riff
E|----------------------|------------------------------------|
B|----------------------|------------------------------------|
G|----------------------|------------------------------------|
D|-2-2----------9/5-2-2-|-2----------------------------------|
A|-2-2----------9/5-2-2-|-2----------------------------------|
E|-0-0----------7/3-0-0-|-0----------------------------------|

E|-----------------------------------------------------------|
B|-----------------------------------------------------------|
G|-----------------------------------------------------------|
D|-2-2---5--7---9/5------------------------------------------|
A|-2-2---5--7---9/5------------------------------------------|
E|-0-0---3--5---7/3------------------------------------------|

play 2x
E|-----------------------------------------------------------|
B|-----------------------------------------------------------|
G|-----------------------------------------------------------|
D|----2----5-7-9/5-------------------------------------------|
A|----2----5-7-9/5-------------------------------------------|
E|----0----3-5-7/3-------------------------------------------|
Tap to rate this tab
# A B C D E F G H I J K L M N O P Q R S T U V W X Y Z