Song name
# A B C D E F G H I J K L M N O P Q R S T U V W X Y Z

Sum 41 - Im Not The One tab

Tuning: half step back

Eb Ab Db Gb Bb Eb

Bend:             <5>
Slide:             /
Muffle:            *
Used if wanted:   (5)
Pick-off:          p
Pick-Slide:        p/


Guitar 1 : Rhythm
Guitar 2 : Lead
Guitar 3 : Extra (only in song at certain points)


Intro:


        Guitar 1     (minimal distortion)  Guitar 3

Eb|-----------------------||Eb|------------------------------------------||
Bb|-----------------------||Bb|------------------------------------------||
Gb|-----------------------||Gb|------------------------------------------||
Db|-0-0-8-8-10-10-5-5-----||Db|------------------------------------------||x4
Ab|-0-0-8-8-10-10-5-5-----||Ab|------------------------------------------||
Eb|-0-0-8-8-10-10-5-5-----||Eb|-0000000088888888101010101010101055555555-||
                                ****************************************

        Guitar 2

Eb|---5------5------5------5-------5-----5----------5-----5---------||
Bb|-----6------6------6------6-------6-----6---6------6-----6---6---||
Gb|-7------7------7------7------7------7-----7---7------7-----7---7-||
Db|-----------------------------------------------------------------||
Ab|-----------------------------------------------------------------||
Eb|-----------------------------------------------------------------||


        Guitars 1 & 2 (heavy distortion)

Eb|------------------------------------------||
Bb|------------------------------------------||
Gb|------------------------------------------||
Db|-0000000088888888101010101010101055555555-|| x4
Ab|-0000000088888888101010101010101055555555-||
Eb|-0000000088888888101010101010101055555555-||

        Guitar 3 (distortion)

Eb|--5------5-----------------/10--------||
Bb|----6------6-----6---5/6/5-----6-6/5--||
Gb|------7------7-7---7------------------||
Db|--------------------------------------|| x4
Ab|--------------------------------------||
Eb|--------------------------------------||



Verse 1


Guitar 1
    
Eb|--------------------------||    Eb|----------||  
Bb|--------------------------||    Bb|----------||
Gb|--------------------------||    Gb|----------||  
Db|--------------------------||x4  Db|--00-3-0--||   all rhythm x2
Ab|--------------------------||    Ab|--00-3-0--||
Eb|-3-0-3-0-3-5-3-0-3-0-000--||    Eb|--00-3-0--||
    * * * * * * * * * * ***

Guitar 2

Eb|--5----||  
Bb|--6----||    
Gb|--7----||    
Db|--0----||x8 
Ab|-------||    
Eb|-------||    


Pre-Chorus

Eb|--------||  
Bb|--------||    
Gb|-2-3----||    
Db|-2-5-0--||
Ab|-0-5-0--||    
Eb|-----0--||  


Chorus

Guitar 1

Eb|----------------------------------------||
Bb|----------------------------------------||
Gb|----------------------------------------||
Db|----------------------------------------||x2
Ab|-00000000-88888888-33333333-33333333----||
Eb|-00000000-88888888-33333333-22222222----||


Guitar 2

Eb|-----------------------------------------------||
Bb|-----------------------------------------------||
Gb|--10-9-10-12-10-9-10-12-14-12-10-9-10-9-7-5----||
Db|-----------------------------------------------||x2
Ab|--8--7-8--10-8--7-8--10-12-10-8--7-8--7-5-3----||
Eb|-----------------------------------------------||


Pre-Verse

Eb|--------------------||  
Bb|--------------------||    
Gb|--------------------||    
Db|--------------------||
Ab|--00-0-0-0-0-0-0-0--||    
Eb|--00-0-0-0-0-0-0-0--||
     ** * * * * * * *


Verse 2

Pre-Chorus

Chorus


Bridge:

Guitars 1 & 2

Eb|-----------------------||  
Bb|-------(66)------(66)--||    
Gb|--------77--------77---||    
Db|--00-0------00-0-------|| x8
Ab|--00-0--55--00-0--55---||    
Eb|--00-0------00-0-------||

Guitar 1

Eb|-------------------------||  
Bb|-------------------------||    
Gb|-------------------------||    
Db|-------------------------|| x8
Ab|--00-00-00-0p1/0-000-00--||    
Eb|--00-00-00-0p1/0-000-00--||
     ** ** **       *** **

On fourth time of guitar 1 = solo:

Eb|-----------------------------------------------||
Bb|-----------------------------------------------||
Gb|-----------------------------------------------||
Db|-----7-8-7-875753-5/7-----7-8-7-8/7/5/7/5/3/5--||x6
Ab|--/55-5-5-5-------------55-5-5-5---------------||
Eb|-----------------------------------------------||
      **************       ********

Guitar 1

Eb|---------------------||  
Bb|---------------------||    
Gb|---------------------||    
Db|--0-0-0-0-1-1--(p/)--|| x4
Ab|--0-0-0-0-1-1--------||    
Eb|--0-0-0-0-1-1--------||


Chorus


Outro:


Guitars 1 & 2

Eb|-----------------------||  
Bb|-------(66)------(66)--||    
Gb|--------77--------77---||    
Db|--00-0------00-0-------|| x2
Ab|--00-0--55--00-0--55---||    
Eb|--00-0------00-0-------||


Guitar 1

Eb|-------------||  
Bb|-------------||    
Gb|-------------||    
Db|--0---1-1-1--|| 
Ab|--0---1-1-1--||    
Eb|--0---1-1-1--||
         * * *
Tap to rate this tab
 
# A B C D E F G H I J K L M N O P Q R S T U V W X Y Z