Song name
# A B C D E F G H I J K L M N O P Q R S T U V W X Y Z

Sum 41 - Fat Lip tab

Sum 41 - Fat Lip

Intro
e|--------------------------|--------------------------|
B|--------------------------|--------------------------|
G|--------------------------|--------------------------|
D|---------6-----------4----|---------6-----------6-4--|
A|--------------------------|--------------------------|
E|--4-5-7-------4-5-7-------|--4-5-7-------4-5-7-------|

Verse 1st Part 2x 
e|-------------------------|---------------------------|
B|-------------------------|---------------------------|
G|-------------------------|---------------------------|
D|----------2-1-2----------|--------2-1-2--------------|
A|------------------2-2----|--0-0----------0-----------|
E|--0-0--------------------|------------------4--2--0--|

Verse 2nd Part (palm muted)
E5 C#5 A5 2x
e|----------------------------------|
B|----------------------------------|
G|--9-9-9-9-9-9-9-9-6-6-6-6---------|
D|--9-9-9-9-9-9-9-9-6-6-6-6-7-7-7-7-|
A|--7-7-7-7-7-7-7-7-4-4-4-4-7-7-7-7-|
E|--------------------------5-5-5-5-|

Chorus 
E5 B5 C#5 G#5 A5 G#5 A5 
e|---------------------------|
B|---------------------------|
G|--9-----6-6----------------|
D|--9--9--6-6--6---7--6---7--|
A|--7--9--4-4--6---7--6---7--|
E|-----7-------4---5--4---5--|

Chorus (Guitar 2 Optional)
E F# G# G#5 A5 G#5 A5
e|---------------------------|
B|---------------------------|
G|--9--11--13----------------|
D|-------------6---7--6---7--|
A|--7--9---11--6---7--6---7--|
E|-------------4---4--4---5--|

Breakdown
E5 A5
e|------------------------------|
B|------------------------------|
G|------------------------------|
D|--2-2--2-2--2-2--2-2--2-2--7--|
A|--2-2--2-2--2-2--2-2--2-2--7--|
E|--0-0--0-0--0-0--0-0--0-0--5--|

Bridge Part 1 Clean
E C#m A5 4x
e|-------------------|--------------------|
B|-------------------|------5-------------|
G|------9------------|--------6-----------|
D|----9---9-----9----|----6-----------7---|
A|--7---------7---7--|--4-----------7-----|
E|----------7--------|------------5-------|

Bridge Part 1 Clean (Guitar 2 optional, play after the guitar 1 plays bridge 2x)
E C#m A5 2x
e|--------------------|--------------------|
B|--------------------|--------------------|
G|--9---9---8---8-----|--6---6-------------|
D|----9---9---9---9---|----9---9----6-7-9--|
A|--------------------|--------------------|
E|--------------------|--------------------|

Bridge Part 2 Distorted

G#5 A5 E5 G#5 A5 A5 
e|----------------------------|
B|----------------------------|
G|----------9-----------------|
D|---6---7--9----6---7--7-----|
A|---6---7--7----6---7--7-----|
E|---4---5-------4---5--5-----|

A5 (Palm mute and build back to the chorus then into intro) 
e|---------------------------|
B|---------------------------|
G|---------------------------|
D|-7-7-7-7-7-7-7-7-7-7-7-7-7-|
A|-7-7-7-7-7-7-7-7-7-7-7-7-7-|
E|-5-5-5-5-5-5-5-5-5-5-5-5-5-|

Tabbed by Rich - rich@guitaretab.com
Tap to rate this tab
# A B C D E F G H I J K L M N O P Q R S T U V W X Y Z