Guitaretab - guitar tabs
Song name
# A B C D E F G H I J K L M N O P Q R S T U V W X Y Z

Sum 41 - Thanks For Nothing tab

Intro

E-------------------------------------------------
B-------------------------------------------------
G-------------------------------------------------
D----7----3-------5-------------------------------         Repeat
A----5----1---3---3-------------------------------
E-------------1-----------------------------------




E-----------------------------------------------------
B-----------------------------------------------------
G-----------------------------------------------------
D---7--7--7---3---3----3-----------------5---5---5----
A---5--5--5---1---1----1---3---3-----3---3---3---3----
E--------------------------1---1-----1----------------

Verse 1

E--------------------------------------------------------
B--------------------------------------------------------
G--------------------------------------------------------
D---7----7---3----3---3-3--------------------------------
A---5----5---1----1---1-1---3--3----5----5---5---5-------
E---------------------------1--1----3----3---3---3-------

E---------------------------------------------------
B---------------------------------------------------
G---------------------------------------------------
D---7---7---7-----3--3---3---------------5---5--5---     Repeat
A---5---5---5-----1--1---1---3---3---3---3---3--3---
E----------------------------1---1---1--------------

Chorus

E-------------------------------------
B-------------------------------------
G-------------------------------------
D---7----3--------5-------------------       Repeat
A---5----1---3----3-------------------
E------------1------------------------


Verse 2


E--------------------------------------------------------
B--------------------------------------------------------
G--------------------------------------------------------
D---7----7---3----3---3-3--------------------------------
A---5----5---1----1---1-1---3--3----5----5---5---5-------
E---------------------------1--1----3----3---3---3-------

E---------------------------------------------------
B---------------------------------------------------
G---------------------------------------------------
D---7---7---7-----3--3---3---------------5---5--5---     Repeat
A---5---5---5-----1--1---1---3---3---3---3---3--3---
E----------------------------1---1---1--------------


Chorus

E-------------------------------------
B-------------------------------------
G-------------------------------------
D---7----3--------5-------------------       Repeat
A---5----1---3----3-------------------
E------------1------------------------

Part before fast strumming part.

E------------------------------------
B------------------------------------
G------------------------------------        Repeat 
D------------------------------------
A----5----8----3---------------------
E------------------3--1--------------


Fast strumming. This is just the chords. Listen to song for how many times they strum.


E-------------------------------
B-------------------------------
G-------------------------------
D--7--3------5------------------
A--5--1--3---3------------------
E--------1----------------------


Chorus

E-------------------------------------
B-------------------------------------
G-------------------------------------
D---7----3--------5-------------------       Repeat
A---5----1---3----3-------------------
E------------1------------------------


Part after the last chorus.



E---------------------------------------------------
B---------------------------------------------------
G---------------------------------------------------
D---7---7---7-----3--3---3---------------5---5--5---     Repeat
A---5---5---5-----1--1---1---3---3---3---3---3--3---
E----------------------------1---1---1--------------



This was taught to me by my teacher. 








[ Tab from: http://www.guitaretab.com/s/sum-41/24439.html ]
Related for Thanks For Nothing tab
×
Best way to learn
"Thanks For Nothing"