Song name
# A B C D E F G H I J K L M N O P Q R S T U V W X Y Z

Sum 41 - What Were All About tab

--------------------------------------
----------10-11-10-11-10--------------
-12-10-12-----------------------------
--------------------------------------
--------------------------------------
--------------------------------------

play that 2 times and then:

--------------------------------------
----------12-13-12-13-12--------------
-14-12-14-----------------------------
--------------------------------------
--------------------------------------
--------------------------------------

finish with: (slide your fingers when u change to the next note)
--------------------------------------
-17----16----15----14-----------------
----16----15----14----13--------------
--------------------------------------
--------------------------------------
--------------------------------------

Tap to rate this tab
 
# A B C D E F G H I J K L M N O P Q R S T U V W X Y Z