Song name
# A B C D E F G H I J K L M N O P Q R S T U V W X Y Z

Sum 41 - Fat Lip tab

I saw some tabs that were close to the song but a few parts were off.  This is the real tab that my teacher Art Boehm tabbed out.  Hes a certified pro at guitaring so this is 100% correect tab.

>  Let ring
/  Slide Down
\  Slide Up
x  Palm Mute

Intro:

Part 1
E-----------------------------------------------------------
B-----------------------------------------------------------
G-----------------------------------------------------------
D-----------6--------------4-----------6-------------4--2---  x2
A-----------------------------------------------------------
E--4--5--7------4--5--7--------4--5--7------4--5--7---------

Part 2
E------------------0->--------------------------------------
B------------------2->--------------------------------------
G------------------2->--------------------------------------  x4
D--0--2->---0--2---2->--------------------------------------
A--0--2->---0--2---0->--------------------------------------
E-----------------------------------------------------------


Verse:
E--------------------0->------------------------------------
B--------------------2->------------------------------------
G--------------4-4---2->------------------------------------
D--2-2--2/1\2--4-4---2->----2/1\2-------------2-2-----------  x2
A--2-2---------2-2---0->----------------------2-2-----------
E--0-0-------------------------------5--4--2--0-0-----------


Pre Chorus:
E--------------------|--------------------------------------
B--------------------|--------------------------------------
G--------------------|--------------------------------------
D--------------------|--------6-------6---------------------
A-------2--x4 times--|--------4-------4------7------7-------
E---0-0-0------------|----0-0-----0-0----0-0-5--0-0-5-------
    x x                   x x     x x    x x    x x

Chorus:   
E-----------------------------------------------------------
B-----------------------------------------------------------
G---9/4\6-6-------------------------------------------------
D---9/4\6-6----6/7\6/7--------------------------------------
A---7/2\4-4----6/7\6/7--------------------------------------
E--------------4/5\4/5--------------------------------------
* All of chords in the chorus have the same amount of beats

Pre Solo:
E------------------------------0----------------------------
B------------------------------2----------------------------
G------------------------------2----------------------------
D------------------------------2----------------------------
A--2-2--2-2-2-2---2-2---2-2-2--0-2-2---2-2-2-2---2-2---2-2-2
E--0-0--0-0-0-0---0-0---0-0-0----0-0---0-0-0-0---0-0---0-0-0

Solo:
E-----------------------------------------------------------
B-------9---------9------------5----------------------------
G-----9---9-----9---9-------------6-----------2-------------  x4
D---7---------6------------6---------------2----------------
A-----------------------4---------------0-------------------
E-----------------------------------------------------------

Palm Muted Riff:
E-----------------------------------------------------------
B-----------------------------------------------------------
G-----------------------------------------------------------
D--------7----x16-------------------------------------------
A--------5--------------------------------------------------
E-----------------------------------------------------------
         x




Order:
Intro (Part 1 and 2 as directed)
Verse
Pre-Chorus
Chorus
Intro (second part)
Verse
Pre Chorus
Chorus
PreSolo
Solo
Intro
Palm Muted Riff
Chorus



Some last comments are the intro riff after the solo is kind of broken up so just keep trying and you'll get it.  Also, listen to the song and you'll learn to play it better, that way you can learn which riffs go where and how many times you hit each chord and stuff.  And when the whole band comes in on the intro riff, I'm pretty sure both intro parts are played at the same time becuase Sum41 has 2 guitars.  Well good luck with the tab.  L8r
          Shady
Tap to rate this tab
# A B C D E F G H I J K L M N O P Q R S T U V W X Y Z