Song name
# A B C D E F G H I J K L M N O P Q R S T U V W X Y Z

Sum 41 - Spanish Lulliby tab

G chord
---3------------3-------------3---------------3----------------------------------------
------------0-------------0--------------0----------------0--------------------
-------0-------------0-------------0---------------0----------------------------------
---0------------0-------------0---------------0-----------------------------------
---------------------------------------------------------------------------------
---------------------------------------------------------------------------------
   t&r  i   m

---10----------9-----------10------------3-----------7---------6----------7-------------
----------0------------0------------0------------0----------0---------0-----------0------
-------0-----------0------------0------------0----------0---------0-----------0----------
----0----------0------------0------------0-----------0---------0-----------0-------------
----------------------------------------------------------------------------------------
-----------------------------------------------------------------------------------------

                                                               D chord
--3---------10------------9----------10----------3-------------2----------2------------
---------0-----------0-----------0------------0-----------0-----------3----------3----
-----0-----------0-----------0------------0-----------0-----------2----------2--------
--0----------0------------0-----------0-----------0------------0----------0--------------
------------------------------------------------------------------------------------
--------------------------------------------------------------------------------------

                                                                      C chord
--2-----------2-----------3-----------3------------3--------3---------0----------------
---------3------------3------------0-----------0---------0---------0---------1---------
-----2------------2-----------0------------0----------0---------0--------0--------------
--0-----------0-----------0-----------0------------0--------0---------2------------------
-------------------------------------------------------------------------------------
-------------------------------------------------------------------------------------


--0----------0-----------0-----------3----------3-----------3-----------3----------------
---------1-----------1-----------1-----------0-----------0-----------0----------0-------
-----0-----------0-----------0-----------0----------0-----------0-----------0----------
--2----------2-----------2-----------0----------0-----------0-----------0--------------
---------------------------------------------------------------------------------
-----------------------------------------------------------------------------------


--2--------2----------2----------2----------3--------3--------3----------3--------------
--------3---------3----------3----------3---------0--------0----------0--------0--------
-----2---------2---------2----------2----------0--------0---------0---------0-----------
--0--------0----------0----------0----------0--------0--------0----------0-------------
---------------------------------------------------------------------------------
--------------------------------------------------------------------------------


------------------------3------------------------------------------------------------
-------------------0---------------------------------------------------------------
---------------0---------------------------------------------------------------------
----------0-------------------------------------------------------------------------
------2------------------------------------------------------------------------------
--3--------------------------------------------------------------------------------
Tap to rate this tab
# A B C D E F G H I J K L M N O P Q R S T U V W X Y Z