Song name
# A B C D E F G H I J K L M N O P Q R S T U V W X Y Z

Sum 41 - Welcome To Hell tab

Highlighted       Show chord diagrams
Sum 41
Welcome To Hell
Chuck
2004 Aquarius Records
Submitted by: paramore_fans@yahoo.com

In this song, bassist CONE MCCASLSIN finally show his true bass skills!!!
You will observe that this song is very diffiult to play in bass
because of the very fast bass lines!!!
if you're a beginner!!! but as for Con, this is very easy to him
He can now match Rancid's MATT FREEMAN's skills!!!


Key: F#

Tuning: Standard EADGBe

Chords used:
Ebm - x68876
F# -  244322
C# -  x46664
B -   x24442
Bbm - x13321


Intro: Ebm--C#-Ebm--F#--C#-- x2


Verse 1:
Ebm          C# Ebm     C#
  Don't come to me with your
Ebm        C#    Ebm
problems I don't need them
F#                C#
  Your conscience is a
            F#      Ebm
weight that I won't hold
Ebm       C#   Ebm C#
  You'd rather be  the
Ebm      C#  Ebm
only one who pretends
F#      C#
  Is it cause you've been
F#         Ebm     (Repeat Intro)
bought and sold so young!!!


Verse 2:
Ebm         C# Ebm       C#
  Don't ask me questions cause
Ebm         C#  Ebm
I don't got the answers
F#   C#
  If you only knew
     F#         Ebm
what time would tell
Ebm        C# Ebm  C#  Ebm
  It's all a  test and lessons
     C#  Ebm
that you can't learn
F#            C#
  You'll know when you
           F#      Ebm
spend your time in hell


Cone: Verses
G|-----------------------------------------------------------------|
D|-----------------------------------------------------------------|
A|-6-6-6-4-6-6-6-4-6-6-6-4-6-6-6-6---------4-4-4-4-6-6-6-6-6-6-6-6-| x2
E|---------------------------------2-2-2-2-------------------------|

Cone: "So Young!!"
G|-----------------------------------|
D|-----------------------------------|
A|-6-6-6-4--6-6-6-4----------4-4-4-4-| x2
E|-------------------2-2-2-2---------|


Chorus:
So as your
B
blood's running
F#        C#
thin your time's
        Ebm
running out
B
No one will
   F#
be listening
    C#
not even when
    Ebm
you shout
          B
When your angels
turn to
F#
devils you'll
C#             Ebm
finally figure out
     Ebm    Bbm
That no one will be
F#       C#
with you in the end


Cone: Chorus
G|------------------------------|-------------------------------|
D|------------------1-3-4-3-1-3-|---------------11--1-3-4-3-1-3-|
A|-2-2-2---------4--------------|-2-2-2-------------------------|
E|--------2-2-2-----------------|--------2-2-2------------------|
               x2

G|---------------------------------|
D|---------------------------------|
A|-6-6-6-6-1-1-1-1---------4-4-4-4-|
E|-----------------2-2-2-2---------|


Cone: Bass Solo 1, moderately fast!!!
G|---------------------------------|-8-8-8-8-8-8-8-8-8-8-8-8-8-8-8-8-|
D|-1-1-1-1-1-1-1-1-4-4-4-4-6-6-6-6-|---------------------------------|
A|---------------------------------|---------------------------------|
E|---------------------------------|---------------------------------|
               x2

G|----------------------------|
D|-6h8p6--4h6p4--3h4p3--1h3p1-|
A|----------------------------|
E|----------------------------|


Verse 3:
Ebm   C# Ebm   C#
  A hypo-crite you're
Ebm       C# Ebm
just a contradiction
F#          C#
  Rapped up in your lies
    F#           Ebm
who knows what's real
Ebm         C# Ebm C#
  Well this is it  your
Ebm         C# Ebm
lonely life of fiction
F#       C#
  Do you even
     F#     Ebm
know how to feel


(Repeat Chorus)


Cone: Bass Solo 2, Very fast and difficult!!! your fingers must be fast here!!!
              Ebm
G|-------3-----------------------|---------------------------------|
D|-1-1-----4-4-4---------------0-|-1-1-1-1-1-1-1-1-4-4-4-4-4-4-4-4-|
A|----------------4-4--4---1-4---|---------------------------------|
E|-----------------------4-------|---------------------------------|
              x14
G|-----------------6-6-6-6-6-6-6-6-|
D|---------------6-----------------|
A|-4-4-4-4-4-4-4-------------------|
E|---------------------------------|


(Repeat Chorus)


Outro:
    Ebm B C#
The end
    Ebm B C#
The end
    Ebm B C#
The end
    Ebm
The end
Tap to rate this tab
 
# A B C D E F G H I J K L M N O P Q R S T U V W X Y Z