Song name
# A B C D E F G H I J K L M N O P Q R S T U V W X Y Z

Sum 41 - Hell Song tab

Group: Sum 41
Song: Hell Song

INTRO
e|------------------------------------------------------|
B|------------------------------------------------------|
G|------------------------------------------------------| 3x
D|--------1---------1---------1--------2-2-1-1----------|
A|----2-4---2---2-4---2-2-2-4----2-------------4-4------|
E|-4----------0----------------------2------------------|
GUITAR 2
e|------------------------------------------------------|
B|------------------------------------------------------|
G|-------------------44444444---------------------------|
D|-66666666-22222222-44444444-44444444------------------|
A|-66666666-22222222-22222222-44444444------------------|
E|-44444444-00000000----------22222222------------------|

VERSE
e|------------------------------------------------------|
B|------------------------------------------------------|
G|-------------------44444444---------------------------|
D|-66666666-22222222-44444444-44444444------------------| 2x
A|-66666666-22222222-22222222-44444444------------------|
E|-44444444-00000000----------22222222------------------|
p.m...................................

CHORUS
e|------------------------------------------------------|
B|------------------------------------------------------|
G|------------9-999999-4-444444-------------------------|
D|-646-666666-9-999999-4-444444-4-44444-----------------| 4x
A|-646-666666-7-777777-2-222222-4-44444-----------------|
E|-424-444444-------------------2-22222-----------------|

BRIDGE
e|------------|
B|------------|
G|------------|
D|-66-66-66-6-|
A|-66-66-66-6-|
E|-44-44-44-4-|

SOLO:
e|-------------------------------------------------------|
B|-9-----99999----9-----99999----------------------------|
G|-11(13)---------11(13)-------11----11-11-11-11/9/8-----|
D|---------------------------------------------------/11-|
A|-------------------------------------------------------|
E|-------------------------------------------------------|
(CONTINUATION)
e|---------------------------------------------------|
B|---------------------------------------------------|
G|------------------------------8-9-11-13/11-9/8-8/9-|
D|-11-13h14--11-11h13--9-9h11-8----------------------|
A|---------------------------------------------------|
E|---------------------------------------------------|
(CONTINUATION)
e|-------------------------------------------------------------------|
B|-------------------------------------------------------------------|
G|-------------------------------------------------------------------|
D|-8h9p8h9p8h9--9h11p9h11p9h11--11h13p11h13p11h13--13h14p13h14p13h14-|
A|-------------------------------------------------------------------|
E|-------------------------------------------------------------------|
(CONTINUATION)
e|--------------------------------------------|
B|-9--------11-------12-------14-----14-12-12-|
G|-11(13)---13(15)---14(16)---16(18)----------|
D|--------------------------------------------|
A|--------------------------------------------|
E|--------------------------------------------|
(CONTINUATION)
e|---------------------------------------------------------|
B|--14/16-----16-16-16-16---14/16-----16-16-16-16---16-----|
G|--16/18(20)---------------16/18(20)---------------18(20)-|
D|---------------------------------------------------------|
A|---------------------------------------------------------|
E|---------------------------------------------------------|
(CONTINUATION)
e|-------------------------------------------------| 
B|-19-----------------16-----19--------------------|
G|------18-16-16------18(20)-------18-16-16--------|
D|-------------------------------------------------|
A|-------------------------------------------------|
E|-------------------------------------------------|
(CONTINUATION)
e|-------------------------------------------------------|
B|--11/12/11---------------------------------------------|
G|-----------13-11-13-11---------------------------------|
D|-----------------------13-11-13-11---11-9-11-9---9~----|
A|-------------------------------------------------------|
E|-------------------------------------------------------|

VERSE 2
e|----------------------------------------|--------|
B|----------------------------------------|--------|
G|-------------------44444444-------------|--------|
D|-66666666-22222222-44444444-44444444----|---4~---|
A|-66666666-22222222-22222222-44444444----|---4~---|
E|-44444444-00000000----------22222222----|---2~---|
   ...................................

END
e|----|
B|----|
G|----|
D|-6~-|
A|-6~-|
E|-4~-|

Intro
Verse
Intro
Verse
Chorus
Bridge
Solo
Verse 2
Intro
End
Tap to rate this tab
 
# A B C D E F G H I J K L M N O P Q R S T U V W X Y Z