Song name
# A B C D E F G H I J K L M N O P Q R S T U V W X Y Z

Sum 41 - Reason To Believe tab

---------------------------------------
Reason To Believe
Sum 41
Screaming Bloody Murder
Tabbed by SilverDolphin
---------------------------------------
This is my first tab so I hope you like it.

Guitar 1 & 2 (0:21 - 0:29) Listen to the song for the rhythm.

PM........
e|---------| X4
B|---------|
G|---------|
D|00-0-00--|
A|00-0-00--|
D|00-0-00--|

Guitar 1 & 2 (0:30 - 0:45)

e|---------------------------------------| X2
B|---------------------------------------|
G|--------------------55-5-55---55-5-55--|
D|00-0-00---33-3-33---55-5-55---55-5-55--|
A|00-0-00---33-3-33---33-3-33---33-3-33--|
D|00-0-00---33-3-33----------------------|

Guitar 1 (0:45 - 1:16)

e|----------------------------------------| X4
B|----------------------------------------|
G|--------------------55-5-55---55-5-55---|
D|00-0-00---33-3-33---55-5-55---55-5-55---|
A|00-0-00---33-3-33---33-3-33---33-3-33---|
D|00-0-00---33-3-33-----------------------|

Guitar 2 (0:45 - 1:16)

e|----------------------------------------| X4
B|----------------------------------------|
G|--------------------55-5-55---55-5-55---|
D|0~~~~~~~~-323532----55-5-55---55-5-55---|
A|0~~~~~~~~-xxxxxx----33-3-33---33-3-33---|
D|0~~~~~~~~-323532------------------------|

Guitar 1 (1:16 - 1:26)
                              PM..........
e|-------------------------------------------|
B|-------------------------------------------|
G|--------------------55-5-55---5555555555---|
D|00-0-00---33-3-33---55-5-55---5555555555---|
A|00-0-00---33-3-33---33-3-33---3333333333---|
D|00-0-00---33-3-33--------------------------|

Guitar 2 (1:16 - 1:26)
                              PM..........
e|-------------------------------------------|
B|-------------------------------------------|
G|--------------------55-5-55---5555555555---|
D|0~~~~~~~~-323532----55-5-55---5555555555---|
A|0~~~~~~~~-xxxxxx----33-3-33---3333333333---|
D|0~~~~~~~~-323532---------------------------|

Guitar 1 & 2 (1:26 - 2:12)

e|--------------------------------------| X8
B|--------------------------------------|
G|----------33333333--------------------|
D|-00000000-33333333-33333333-22222222--|
A|-00000000-11111111-33333333-33333333--|
D|-00000000----------33333333-22222222--|

Guitar 1 & 2 (2:45 - 3:14)

e|---1---1---1---1---0---0---0---0---| X 2-|
B|--------------------1---1---1---1--------|
G|--3-3-3-3-2-2-2-2-0---0---0---0----------|
D|-3---3---3---3---2---2---2---2-----------|
A|-----------------------------------------|
D|-----------------------------------------|

Guitar 1 & 2 (3:15 - 3:20~)

e|------1~~----|
B|------1~~----|
G|------2~~----|
D|-2~~~ 3~~----|
A|-------------|
D|-------------|


*****************
PM.... Palm mute
~~     Let ring
x      Dead note
*****************
Tap to rate this tab
 
# A B C D E F G H I J K L M N O P Q R S T U V W X Y Z