Song name
# A B C D E F G H I J K L M N O P Q R S T U V W X Y Z

Sum 41 - Mr Amsterdam tab

Help us improve GuitareTab! Take a short survey!
ALBUM:DOES THIS LOOK INFECTED?
SONG:MR AMSTERDAM
TUNING: 1/2 STEP DOWN (Eb Bb Gb Db Ab Eb)

/ = slide up
\ = slide down
* = palm mute
~ = LET NOTE RING


    INTRO 1
E-----------------------------------------------------|
B-----------------------------------------------------|
G-------------------12~--11~--9~----14-12-11-9--------|
D-----------------------------------------------------|
A--2--2222---222----10~--9~---7~----12-10-9--7--------|
E--0--0000---000--------------------------------------|


   INTRO 2
E---------------------------------------------------------------------|
B---------------------------------------------------------------------|
G--9--12--11--9---8--12--11--9------14-12-11-12-14-12-11-/12\11-7/9---|
D---------------------------------------------------------------------|
A--7--10--9---7---6--10--9---7------12-10-9--10-12-10-9--/10\-9-5/7---|
E---------------------------------------------------------------------|


E-----------------------------------------------|
B-----------------------------------------------|
G-----------------------------------------------|
D-----------------------------------------------|
A--7777777777777777-57--7777777777777777-57-----| X2
E-----------------------------------------------|
   ****************     ****************


   VERSE
E------------------------------------------|
B------------------------------------------|
G------------------------------------------|
D------------------------------------------|
A--77777777-55555555-33333333--------------| X2
E------------------------------33333333----|
   ******** ******** ********  ********


   PRE-CHORUS
E---------------------------|
B---------------------------|
G--9-9---7-7---5-5---7-7----|
D--9-9---7-7---5-5---7-7----| X2
A--7-7---5-5---3-3---5-5----|
E------0-----0-----0--------|
       *     *     *

E--------------------------------------------|
B--------------------------------------------|
G--------------------------------------------|
D----------------------------------7-7-7-7---|
A----------2----------2---5-5-5-5--5-5-5-5---| X2
E--000000000--000000000---3-3-3-3------------|
   ********   ********


E------------------------------------|
B------------------------------------|
G------------------------------------|
D--9-9---12-11-11----5-5---5-7-7-----|
A--7-7---10/9--9-----3-3---3-5-5-----| X4
E------0-----------------0-----------|
       *                 *


E------------------------------------|
B------------------------------------|
G------------------------------------|
D--9------99--5-------7-7------------|
A--7-7777-77--3-3333--5-5------------| X2
E------------------------------------|

  PRE-CHORUS 2
E------------------|
B------------------|
G------------------|
D-----5-7--5-------|
A--2--7-5--3-5-4---| X2
E--0---------3-2---|


E--------------------------------------------|
B--------------------------------------------|
G--------------------------------------------|
D----------------------------------7-7-7-7---|
A----------2----------2---5-5-5-5--5-5-5-5---| X2
E--000000000--000000000---3-3-3-3------------|
   ********   ********

E------------------------------------|
B------------------------------------|
G------------------------------------|
D--9-9---12-11-11----5-5---5-7-7-----|
A--7-7---10/9--9-----3-3---3-5-5-----| X2
E------0-----------------0-----------|
       *                 *

E------------------------------------|
B------------------------------------|
G------------------------------------|
D--9------99--5-------7-7------------|
A--7-7777-77--3-3333--5-5------------| X4
E------------------------------------|
     ****       ****


   PRE-INTERLUDE GTR 1
E-------------------------------|
B-------------------------------|
G-------------------------------|
D-------------------------------|
A-------------------------------|
E--0-0000000-0000000-0000000----|
   * ******* ******* *******

      GTR 2
E-----------------------------------------------------|
B-----------------------------------------------------|
G-----------------------------------------------------|
D-----------------------------------------------------|
A--2---8-7-5-2--22---8-7-5-2~--22--8-7-5-2--2-2-2-2---|
E--0---6-5-3-0--00---6-5-3-0~--00--6-5-3-0--0-0-0-0---|


  INTERLUDE X2
E------------------------------------|
B------------------------------------|
G------------------------------------|
D----5---5---5---5---5---5-----------|
A----7---7---7---7---7---7---8-7-5---|
E--0---0---0---0---0---0-----6-5-3---|
   *   *   *   *   *   *


E-----------------------------------|
B-----------------------------------|
G-----------------------------------|
D----5---5---5---5---5----4-4-7-----|
A----7---7---7---7---7----6-6-5-----|
E--0---0---0---0---0---0------------|
   *   *   *   *   *   *

E------------------------------------|
B------------------------------------|
G------------------------------------|
D----5---5---5---5---5---5-----------|
A----7---7---7---7---7---7---8-7-5---|
E--0---0---0---0---0---0-----6-5-3---|
   *   *   *   *   *   *


E-------------------------------|
B-------------------------------|
G-------------------------------|
D-----------7-7-----------7-6---|
A-----------5-5-----------5-8---|
E--77777777------77777777-------|
   ********      ********

E---------------------------------------------------------------------|
B---------------------------------------------------------------------|
G--9--12--11--9---8--12--11--9------14-12-11-12-14-12-11-/12\11-7/9---|
D---------------------------------------------------------------------|
A--7--10--9---7---6--10--9---7------12-10-9--10-12-10-9--/10\-9-5/7---| X2
E---------------------------------------------------------------------|


  OUTRO
E------------------|
B------------------|
G------------------|
D------------------|
A--2-2-2-2-----3---|
E--0-0-0-0-000-1---|
           ***


  THATS ALL ANY COMMENTS EMAIL ME GUITAR_HERO_84@HOTMAIL.COM

  PLZ RATE THIS  TABBED BY TAB_MAN84
Related for Mr Amsterdam tab