Song name
# A B C D E F G H I J K L M N O P Q R S T U V W X Y Z

Sum 41 - Underclass Hero chords

Highlighted       Show chord diagrams
Sum 41
Underclass Hero
Underclass Hero
2007 Island Records
Submitted by: jeremyunderground41@yahoo.com

Key: E

Tuning: Standard EADGBe

Chords used:
E -   022100
B -   x24442
C#m - x46654
A -   x02220


Intro :
        E             B                A              B
e|-------------|-------------|--------------------|-------|
B|-------------|-------------|--------------------|-------|
G|--------2--1-|--------2--1-|--------2--1--------|-------|
D|-----2-------|-----2-------|-----2------------2-|-----4-| x4
A|-------------|-2-2---------|-0-0----------0-0---|-2-2---|
E|-0-0---------|-------------|--------------------|-------|

1,2..


Verse 1:
       E
Well I wont be caught
            B
living in a dead end job
      C#m
While praying to my
           A
government guns and god
         E
Now it's us against them
      B
Were here to represent
    C#m
And spit right in the
              A
face of the establishment
    E
And now I don't believe
    B
(In having faith in nothing!)
 C#m
Stand on my own
     A       B
(Got no sympathy!)
E
Wasting the youth
       B
(While being young and useless!)
C#m
Speak for yourself
     A
(And don't pray for me!)


Chorus:
             A           E
Well Because we're doing fine
       B
And we don't need to be told
     A           E
That we're doing fine
         B
Cause we won't give you control
       A          E  B
And we don't need anything from you
            A       E
Cause we'll be just fine
       B
And we won't be bought
and sold Just like you


Interlude: Repeat Intro but twice only

A call across the Underclass


Verse 2:
E
Calling out loud
     B
with no respect
C#m
Im not the one
     A
just another reject
        E
I'm the voice you affect
     B
I'll lose and protect
  C#m
I saw your up against the great
              A
America well rise against
            E
And now I'm desensitized
    B
(I state my place in nowhere!)
C#m
Burning the flag
    A           B
(Of the degeneration!)
E
Everyone sing
     B
(The Anthem of no future!)
C#m
Down with the mass
       A              B
(Cause we're not listening!)


(Repeat Chorus)


Bridge:
E
  May I have your attention please
I pledge allegiance to the
underclass as your hero at large


Bridge : E B A A-B (x4), E

Deryck Whibley's amazing lead Solo:
       A            E                    B
e|-----------|--------------|---------------------0---2-|
B|-----------|--------------|---------------0-4-0---0---|
G|-----------|--------------|-1-------------------------|
D|-2--2--2-4-|-2-------2--4-|----4--4--2-4--------------| x2
A|-----------|----2--2------|---------------------------|
E|-----------|--------------|---------------------------|

         A                 E                       B
e|-----5-----5-----|-----4-----4-----|-------------------------------|
B|-5-5---5-5---5---|-5-5---5-5---5---|-----4-----5-----7-----4---4-5-|
G|---------------4-|---------------4-|-4-4---4-4---4-4---4-4---4-----|
D|-----------------|-----------------|-------------------------------|
A|-----------------|-----------------|-------------------------------|
E|-----------------|-----------------|-------------------------------|

       A            E                    B                 E
e|-----------|--------------|----------------------------|---|
B|-----------|--------------|----------------------------|---|
G|-----------|--------------|-1--------------13-14-13-11-|-9-|
D|-2--2--2-4-|-2-------2--4-|----4--4--2-4----x--x--x--x-|-x-|
A|-----------|----2--2------|----------------11-12-11--9-|-7-|
E|-----------|--------------|----------------------------|-0-|


(Repeat Intro but only twice)
1..2..3..4


Verse 3:
E
  Were the saints
  B
of degeneration
A
  We dont owe anyone
        B
an explanation
E
  Fuck elitists
B
  We dont need this
A
We're the elites
of disarray


(Repeat Chorus)
(Repeat Intro twice only)
Tap to rate this tab
 
# A B C D E F G H I J K L M N O P Q R S T U V W X Y Z