Song name
# A B C D E F G H I J K L M N O P Q R S T U V W X Y Z

Sun Eats Hours - Rain tab

                RAIN (THE CULT COVER) - SUN EATS HOURS

Well, it's my first tab... This is what I get of this rocking song, hope you like it, 
not sure about the intro, but riff is correct, add comments and rate too please! ^^ 
by Saint Jimmy)

 h = hammer on
 p = pull off
 < = scrape

Intro:
e|-------------------------------------1-0----------------------1h3-3-|
B|-----3------1----------------------3----------1--------1-0----------|
G|---2------2--------0-------------2----------2--------0--------------|
D|-0------0--------2--------0----0----------0--------2----------------|
A|---------------3--------2------------------------3------------------|
E|----------------------3------------------------------------3--------|

Riff (Distorted Guitar):
e|-----------------------------------------------|
B|---3-3-0--0-0----------------------------------|
G|-2------------5p4-0--7-7p5p4-0--0-0-2--4-2-0-2-|
D|-----------------------------------------------|
A|-----------------------------------------------|
E|-----------------------------------------------|

Riff outro:
e|-----------------------------------------------|
B|-----------------------------------------------|
G|---0-2---0-2---0-2--------------0--------------|
D|-----------------------------------------------|
A|-----------------------------------------------|
E|--------------------<<<<<<<<<<-----------------|
Tap to rate this tab
# A B C D E F G H I J K L M N O P Q R S T U V W X Y Z