Song name
# A B C D E F G H I J K L M N O P Q R S T U V W X Y Z

Sun Kil Moon - Natural Light tab

Band: Sun Kil Moon
Song: Natural Light
Album: I'll Be There (EP)
Tabber: Andrew Biles

This is a cover of a Casiotone for the Painfully Alone song that appeared on an 'Admiral 
Fell Promises' bonus disc.

Tuning: C#, G#, C#, F#, A#, d# (*Note: you only really need the three low strings 
detuned to play the song)

Intro:
|-----------------|-----------------|-----------------|-----------------|
|-----------------|-----------------|-----------------|-----------------|
|-----------------|-----------------|-----------------|-----------------|
|-----0-----0---0-|-----0-----0---0-|-----0-----0---0-|-----0-----0---0-|
|---0-----0-------|---5-----5-------|---0-----0-------|---5-----5-------|
|-0-----0-----0---|-5-----5-----5---|-0-----0-----0---|-5-----5-----5---|


Verse:
|-----------------|-----------------|-----------------|-----------------|
|-----------------|-----------------|-----------------|-----------------|
|-----------------|-----------------|-----------------|-----------------|
|-----0-----0---0-|-----0-----0---0-|-----0-----0---0-|-----0-----0---0-|
|---0-----0-------|---5-----5-------|---0-----0-------|---5-----5-------|
|-0-----0-----0---|-5-----5-----5---|-0-----0-----0---|-5-----5-----5---|

|-----------------|-----------------|-----------------|
|-----------------|-----------------|-----------------|
|-----------------|-----------------|-----------------|
|-----0-----0---0-|-----0-----0---0-|-----0-----0---0-|
|---0-----0-------|---7-----7-------|---7-----7-------|
|-0-----0-----0---|-7-----7-----7---|-7-----7-----7---|


Chorus:
|-----------------|-----------------|
|-----------------|-----------------|
|-----------------|-----------------|
|-----0-----0---0-|-----0-----0---0-|
|---0-----0-------|---5-----5-------|
|-0-----0-----0---|-5-----5-----5---|

|-----------------|-----------------|-----------------|-----------------|
|-----------------|-----------------|-----------------|-----------------|
|-----------------|-----------------|-----------------|-----------------|
|-----0-----0---0-|-----0-----0---0-|-----0-----0---0-|-----0-----0---0-|
|---9-----9-------|---7-----7-------|---9-----9-------|---7-----7-------|
|-9-----9-----9---|-7-----7-----7---|-9-----9-----9---|-7-----7-----7---|


Transition:
|-----------------|-----------------|
|-----------------|-----------------|
|-----------------|-----------------|
|-----0-----0---0-|-----0-----0---0-|
|---0-----0-------|---5-----5-------|
|-0-----0-----0---|-5-----5-----5---|

Verse
Chorus - end on open C# (low string)
Tap to rate this tab
# A B C D E F G H I J K L M N O P Q R S T U V W X Y Z