Song name
# A B C D E F G H I J K L M N O P Q R S T U V W X Y Z

Sungha Jung - Wake Me Up When September Ends tab

----------------------------------------------------------------------------
Wake me up when September ends - Green Day
-------------------------------------------------------------------------------
Tabbed by: Morgan Pratt
Email: nagrom.ilcm@gmail.com

Tuning: DADGBe

This is the version played by Sunga Jung.
These are the parts that are different.

e|---------------------------------------------------------------------------|
B|-----------0--0--------0--0------------0--0-------3/5--3--0----------------|
G|--0--2-----------2--2---------------2-----------2--------------------------|
D|-----0--0-----0-----0-----0---------0--0-----0------0----------------------|
A|-----------------------------0h2p0---------------------------0h2p0---------|
D|--0--5-----5--------4---------------2-----2--------------------------------|

e|---------------------------------------------------------------------------|
B|--3--1--------------3--------------------------3------3--------------------|
G|--0-----2----------5---5-------2--2--0--0----0------0----------------------|
D|-----2------------5-------5---0--0--0------5------5------------------------|
A|--3-------0h2p0--3-----------0--0--0---------------------------------------|
D|---------------------------------------------------------------------------|

The rest of the parts are the same. Glad I could help! If you have any problems, message 
on youtube ( CashMoneyBunny ) I will put a video up shortly.

************************************

| /   slide up
| \   slide down
| h   hammer-on
| p   pull-off
| ~   vibrato
| +   harmonic
| x   Mute note
| b   Bend
| pb  Pre-bend
| br  Bend release
| pbr Pre-bend release
| brb Bend release bend

************************************
Tap to rate this tab
 
# A B C D E F G H I J K L M N O P Q R S T U V W X Y Z