Song name
# A B C D E F G H I J K L M N O P Q R S T U V W X Y Z

Sungha Jung - River Flows In You tab

I know there must capo on the 2nd fret there, but it's better to use standard tuning 
capo. Sounds the same, is easier to play!


Chords:

    F#m7   A/D      A           E         F#m        D7M

E||--5--||--5--||--5(0)--||--0(0)(7)--||--2(x)---||--3(9)---||
B||--5--||--5--||--5(2)--||--0(0)(9)--||--2(10)--||--3(10)--||
G||--6--||--6--||--6(2)--||--1(9)(9)--||--2(11)--||--3(11)--||
D||--4--||--0--||--7(2)--||--2(9)(9)--||--4(11)--||--0(0)---||
A||--x--||--x--||--7(0)--||--2(7)(7)--||--4(9)---||--x(x)---||
E||--x--||--x--||--5(x)--||--0(0)(0)--||--2(x)---||--x(x)---||


                           F#m7                        A/D
     H.           E  E     E    E  E  E  E  E  Q       Q    Q    Q    Q
E||------------------4--|--5-------4--5--------4----|--5---------5----------|
B||---------------5-----|---------------------------|--5---------5----3~----|
G||---------------------|-------6-----------6-------|-------6---------------|
D||---------------------|--4-------------4----------|--0--------------------|
A||---------------------|---------------------------|-----------------------|
E||---------------------|---------------------------|-----------------------|


                        F#m7                        A/D
  H.           E  E     E    E  E  E  E  E  Q       E   E  E  Q.     Q
------------------4--|--5-------4--5--------4----|--5---------5------------|
--L------------5-----|---------------------------|--5------5---------3~----|
---------------------|-------6-----------6-------|------6------------------|
---------------------|--4-------------4----------|--0----------------------|
---------------------|---------------------------|-------------------------|
---------------------|---------------------------|-------------------------|


                        F#m7                        A/D
  H.           E  E     E    E  E  E  E  E  Q       E   E  E  E  E  E  E   E
------------------4--|--5-------4--5--------4----|--5---------5---------------|
--L------------5-----|---------------------------|--5------5-----5-----5s--3--|
---------------------|-------6-----------6-------|------6-----------6---------|
---------------------|--4-------------4----------|--0-------------------------|
---------------------|---------------------------|----------------------------|
---------------------|---------------------------|----------------------------|


  A                        E                         F#m
  Q    Q      Q    Q       Q    E  E  E  E  E  E     Q    Q    Q    E  E
------------------------|-------------------------|-----------------------|
--2----3----3g5----2----|--0----------------------|-----------------------|
------------------------|-------1-----1-----------|--2--------------2--4--|
------------------------|----------2-----2--------|------------4----------|
--0---------------------|-------------------2-----|-------4---------------|
------------------------|--0-------------------0--|--2--------------------|


  D7M                       A                       E
  Q    Q    E  E  E   E     Q    Q    Q    E  E     H        H
------------2------------|-----------------------|--------------------|
--2---------2-----2h--3--|--5---------5----3--2--|--0-----------------|
-------2-------2---------|-----------------------|--------------------|
--0----------------------|-------7---------------|--------------------|
-------------------------|-----------------------|--------------------|
-------------------------|--5--------------------|--0--------x--------|


  F#m7                        A/D
  E    E  E  E  E  E  Q       E   E  E  E  E  E  E   E
--5-------4--5--------4----|--5---------5---------------|
---------------------------|--5------5-----5-----5s--3--|
-------6-----------6-------|------6-----------6---------|
--4-------------4----------|--0-------------------------|
---------------------------|----------------------------|
---------------------------|----------------------------|


  A                        E                          F#m7
  Q    Q      Q    Q       H        S  S  E  E  E     Q    Q    E  E  E  E
-------------------9----|--7--------7h-9p-7--5--4--|--5---------5-----------|
--2----3----3g5---------|--------------------------|------------5-----------|
------------------------|--------------------------|-------6----------2--4--|
------------------------|--------------------------|--4---------------------|
--0---------------------|--------------------------|------------------------|
------------------------|--0-----------------------|------------------------|


  D7M                    A                       E
  Q    Q    Q    Q       Q    Q    Q    E  E     H         E   S   S   E  E
------------2---------|-----------------------|------------------------------|
--2-------------------|--5---------5----3--2--|--0--------10--10h-12p-10--9--|
-------2---------2----|-----------------------|------------------------------|
--0-------------------|-------7---------------|------------------------------|
----------------------|-----------------------|------------------------------|
----------------------|--5--------------------|--0---------------------------|


     F#m                                   D7M
     E   E   E   E   E   S   S   E  E      E   E  E   E   E  E   E   E
|--------------------------------------|----------9------10--9----------|
|---10----------10--10--10h-12p-10--9--|--10---------10---------12--10--|
|*----------11-------------------------|------11------------------------|
|*------11-----------------------------|---0----------------------------|
|----9---------------------------------|--------------------------------|
|--------------------------------------|--------------------------------|

                                  1st, 2nd, 3rd times
   A                               E
   E   E  E   E   E   E  E   E     E  E  E  E   E   S   S   E  E   4x
----------9--10--12--10--9------|----------------------------------||
--10--12--------------------12--|--9-----------10--10h-12p-10--9---||
--------------------------------|-----9-----9---------------------*||
--------------------------------|--------9------------------------*||
---0--------------0-------------|----------------------------------||
--------------------------------|--0-------------------------------||

  4th time
  E                                                 F#m7
  E  E  E  E  E  E  E  E     H        Q    E  E     E    E  E  E  E  E  Q
--------------------------|-------------------4--|--5-------4--5--------4----|
--9-----------9-----9-----|--9-------------5-----|--5------------------------|
-----9-----9--9-----9-----|--9-------------------|-------6-----------6-------|
--------9--------9-----9--|----------------------|--4-------------4----------|
--------------------------|----------------------|---------------------------|
--0-----------------------|----------------------|---------------------------|


  A/D                          A                        E
  E   E  E  E  E  E  E   E     Q    Q      Q    Q       Q    E  E  E  E  E  E
--5---------5---------------|------------------------|-------------------------|
--5------5-----5-----5s--3--|--2----3----3g5----2----|--0----------------------|
------6-----------6---------|------------------------|-------1-----1-----------|
--0-------------------------|------------------------|----------2-----2--------|
----------------------------|--0---------------------|-------------------2-----|
----------------------------|------------------------|--0-------------------0--|


  F#m                     D7M                       A
  Q    Q    Q    E  E     Q    Q    E  E  E   E     Q    Q    Q    E  E
-----------------------|------------2------------|-----------------------|
-----------------------|--2---------2-----2h--3--|--5---------5----3--2--|
--2--------------2--4--|-------2-------2---------|-----------------------|
------------4----------|--0----------------------|-------7---------------|
-------4---------------|-------------------------|-----------------------|
--2--------------------|-------------------------|--5--------------------|


  E5                   F#m7                        A/D
  H        H           E    E  E  E  E  E  Q       E   E  E  E  E  E  E   E
--------------------|--5-------4--5--------4----|--5---------5---------------|
--0-----------------|--5------------------------|--5------5-----5-----5s--3--|
--------------------|-------6-----------6-------|------6-----------6---------|
--------------------|--4-------------4----------|--0-------------------------|
--------------------|---------------------------|----------------------------|
--0--------x--------|---------------------------|----------------------------|


  A                        E                          F#m7
  Q    Q      Q    Q       H        S  S  E  E  E     Q    Q    E  E  E  E
-------------------9----|--7--------7h-9p-7--5--4--|--5---------5-----------|
--2----3----3g5---------|--------------------------|------------5-----------|
------------------------|--------------------------|-------6----------2--4--|
------------------------|--------------------------|--4---------------------|
--0---------------------|--------------------------|------------------------|
------------------------|--0-----------------------|------------------------|


  D7M                    A                       E
  Q    Q    Q    Q       Q    Q    Q    E  E     H         E   S   S   E  E
------------2---------|-----------------------|------------------------------|
--2-------------------|--5---------5----3--2--|--0--------10--10h-12p-10--9--|
-------2---------2----|-----------------------|------------------------------|
--0-------------------|-------7---------------|------------------------------|
----------------------|-----------------------|------------------------------|
----------------------|--5--------------------|--0---------------------------|


     F#m                                   D7M
     E   E   E   E   E   S   S   E  E      E   E  E   E   E  E   E   E
|--------------------------------------|----------9------10--9----------|
|---10----------10--10--10h-12p-10--9--|--10---------10---------12--10--|
|*----------11-------------------------|------11------------------------|
|*------11-----------------------------|---0----------------------------|
|----9---------------------------------|--------------------------------|
|--------------------------------------|--------------------------------|

                                  1st, 2nd, 3rd times
   A                               E
   E   E  E   E   E   E  E   E     E  E  E  E   E   S   S   E  E   4x
----------9--10--12--10--9------|----------------------------------||
--10--12--------------------12--|--9-----------10--10h-12p-10--9---||
--------------------------------|-----9-----9---------------------*||
--------------------------------|--------9------------------------*||
---0--------------0-------------|----------------------------------||
--------------------------------|--0-------------------------------||

  4th time
  E                                                 F#m7
  E  E  E  E  E  E  E  E     H        Q    E  E     E    E  E  E  E  E  Q
--------------------------|-------------------4--|--5-------4--5--------4----|
--9-----------9-----9-----|--9-------------5-----|---------------------------|
-----9-----9--9-----9-----|--9-------------------|-------6-----------6-------|
--------9--------9-----9--|----------------------|--4-------------4----------|
--------------------------|----------------------|---------------------------|
--0-----------------------|----------------------|---------------------------|


  A/D                          A                        E
  E   E  E  E  E  E  E   E     Q    Q      Q    Q       Q    E  E  E  E  E  E
--5---------5---------------|------------------------|-------------------------|
--5------5-----5-----5s--3--|--2----3----3g5----2----|--0----------------------|
------6-----------6---------|------------------------|-------1-----1-----------|
--0-------------------------|------------------------|----------2-----2--------|
----------------------------|--0---------------------|-------------------2-----|
----------------------------|------------------------|--0-------------------0--|


  F#m                     D7M                       A
  Q    Q    Q    E  E     Q    Q    E  E  E   E     Q    Q    Q    E  E
-----------------------|------------2------------|-----------------------|
-----------------------|--2---------2-----2h--3--|--5---------5----3--2--|
--2--------------2--4--|-------2-------2---------|-----------------------|
------------4----------|--0----------------------|-------7---------------|
-------4---------------|-------------------------|-----------------------|
--2--------------------|-------------------------|--5--------------------|


  E                    F#m7                        A/D
  H        H           E    E  E  E  E  E  Q       E   E  E  E  E  E  E   E
--------------------|--5-------4--5--------4----|--5---------5---------------|
--0-----------------|---------------------------|--5------5-----5-----5s--3--|
--------------------|-------6-----------6-------|------6-----------6---------|
--------------------|--4-------------4----------|--0-------------------------|
--------------------|---------------------------|----------------------------|
--0--------x--------|---------------------------|----------------------------|


  A                        E                          F#m
  Q    Q      Q    Q       H        S  S  E  E  E     Q    Q    Q    E  E
-------------------9----|--7--------7h-9p-7--------|-----------------------|
--2----3----3g5---------|--------------------0-----|-----------------------|
------------------------|-----------------------1--|--2--------------2--4--|
------------------------|--------------------------|------------4----------|
--0---------------------|--------------------------|-------4---------------|
------------------------|--0-----------------------|--2--------------------|


  D7M                       A                       E
  Q    Q    E  E  E   E     Q    Q    Q    E  E     W
------------2------------|-----------------------|-------------------|
--2---------2-----2h--3--|--5---------5----3--2--|--0----------------|
-------2-------2---------|-----------------------|-------------------|
--0----------------------|-------7---------------|-------------------|
-------------------------|-----------------------|-------------------|
-------------------------|--5--------------------|--0----------------|


  Q    Q    Q    Q       Q    H.
----------------------|-------2------------||
----------------------|--2-----------------||
--2--------------2----|--------------------||
--4---------4---------|--------------------||
-------4--------------|--------------------||
--2-------------------|--------------------||


Duration Legend
---------------
W - whole
H - half
Q - quarter
E - 8th
S - 16th
T - 32nd
X - 64th
. - note dotted
|-n-|  - n-tuplets


Tablature Legend
----------------
L - tied note
x - dead note
g - grace note
(n) - ghost note
> - accentuded note
NH - natural harmonic
AH - artificial harmonic
TH - tapped harmonic
SH - semi harmonic
PH - pitch harmonic
h - hammer on
p - pull off
b - bend
br - bendRelease
pb - preBend
pbr - preBendRelease
brb - bendReleaseBend
\n/ - tremolo bar dip
\n - tremolo bar dive
-/n - tremolo bar Release up
/n\ - tremolo bar inverted dip
/n - tremolo bar return
-\n - tremolo bar Release down
S - shift slide
s - legato slide
/ -  slide into from below or out of upwards
\ -  slide into from above or out of downwards
~ - vibrato
W - wide vibrato
tr - trill
TP - tremolo picking
T - tapping
S - slap
P - pop
< - fade in
^ - brush up
v - brush down
Tap to rate this tab
 
# A B C D E F G H I J K L M N O P Q R S T U V W X Y Z