Song name
# A B C D E F G H I J K L M N O P Q R S T U V W X Y Z

Sungha Jung - The Rose tab

Tuning-DGDGBD capo4th
Intro
|-----------------------------------|
|-0---0---0---0---0---0---0---------|
|-0-----0-------0-------0-----0h2---|
|---7-------7-------7-------7-------|
|-0---------------------------------|
|-----------------------------------|
Verse 1 (repeat twice except the last part than go to Bridge 1)
|----------------------------0-----------------------------|---------|
|-0------------0h1--0--0------------------------0--0-------|---------|
|-----0------0-------------2---2--0--0-----0--2--------0---|---0h2---|
|---0---0--0-------------0-----0---------0----0------0---0-|-0-------|
|-0------------------------------------5-----------0-------|---------|
|----------------------4-------4-----2--------4------------|---------|
Bridge 1 (go to Verse 2 after)
|---------------------0----------------------------------------------------0-------|
|-----0h1--3-----3--3------------------0--0h1-----1p0------------------------------|
|---0----------0------------0------0h2----0-----0-----2--0-------------------0--2--|
|-0----------4------------2---2--2--------2---2------------1/2---2/3/2--0----------|
|----------4------------------------------2--------------------2-------------------|
|-----------------------2----------------------------------0------------0----------|
Verse 2 (go to Intro after, than verse 3)          (last part of intro with extra hammer note)
|----------------------------0-------------------------|---------|
|-0------------0h1--0--0-------------------------------|---------|
|-----0------0-------------2---2--0--0-----0-----2--0--|--0h2----|
|---0---0--0-------------0-----0---------0-------0-----|--0h2----|
|-0------------------------------------5-------5-------|---------|
|----------------------4-------4-----2-------0---------|---------|
Verse 3 (repeat twice except the last part than go to Bridge 2)
|----------------------------0------------------0----------|---------|
|-0------------0h1--0--0----------0----------------0-------|---------|
|-----0------0-------------2---2-----0-----0--2----0---0---|----0h2--|
|---0---0--0---0h2-------0-----0---------0----0------0---0-|-0--0h2--|
|-0------------------------------------5-----------0-------|---------|
|----------------------4-------4-----2--------4------------|---------|
Bridge 2 (go to Verse 4 after)
|------------------------0---------------------------------------------------0--------|
|-----0h1--3-----3-----3------------------0--0h1-----1p0------------------------------|
|---0----------0-----0----------------0h2----0-----0-----2--0-------------------0--2--|
|-0---0h2----4-----4-----------2----2--------2---2------------1/2---2/3/2--0----------|
|----------4-----------------0---------------2--------------------2-------------------|
|--------------------------2----(2)---------------------------0------------0----------|
Verse 4 (go to Intro after, than verse 5)     (last part of intro with extra hammer note)
|----------------------------0----------------------------|---------|
|-0------------0h1--0--0----------0-----------------------|--0h1----|
|-----0------0-------------2---2-----0-----0-----2--0-----|--0h2----|
|---0---0--0---0h2-------0-----0---------0-------0--------|---------|
|-0------------------------------------5-------5----------|---------|
|----------------------4-------4-----2-------0------------|---------|
Verse 5 (go to Bridge 3 after)
|-0--------------------------0------------------0-------------------|
|-0------------0h1--0--0----------0----------------0-----------0h1--|
|-----0------0-------------2---2--0--0-----0--2--------0-------0h2--|
|---0---0--0---0h2-------0-----0---------0----0------0---0--0--0h2--|
|-0------------------------------------5-----------0----------------|
|----------------------4-------4-----2--------4---------------------|
(slight difference, still Verse 5)
|-0--------------------------0--------------------------------|
|-0------------0h1--0--0---------------------------0--0-------|
|-----0------0-------------2---2/3/2p0--0-----0--2--------0---|
|---0---0--0---0h2-------0-----0------------0----0------0---0-|
|-0---------------------------------------5-----------0-------|
|----------------------4-------4--------2--------4------------|
Bridge 3 (go to Verse 6 after)
|--------------------------0-----------------------------------------------0-------|
|-----0h1--3-----3-----3h5-----------------0--0h1-----1p0--------------------------|
|---0----------0-----0------------0---0h2-----0-----0-----2p0--------0-------0h2---|
|-0---0h2----4-----4------------2-----0h2-----2---2------------1/2-------4---------|
|----------4----------------------------------2--------------------2---5-----------|
|-----------------------------2--------------------------------0-------------------|
Verse 6 (take a bit of time after the last note than go to outro after)
|----------------------------0-------------------------|
|-0------------0h1--0--0-------------------------------|
|-----0------0-------------2---2/3/2p0--0-----0-----2--|
|---0---0--0---0h2-------0-----0------------0-------0--|
|-0---------------------------------------5-------5----|
|----------------------4-------4--------2-------0------|
Outro
|-------------------------------|
|--------0---0---0---0---0------|
|-0--0-----0-------0-------0----|
|------7-------7-------7--------|
|----0-----------------------0--|
|-------------------------------|
Tap to rate this tab
 
# A B C D E F G H I J K L M N O P Q R S T U V W X Y Z