Sungha Jung - To Be With You tab

------------------------------------------------------------------
	             To Be With You - Mr. Big
------------------------------------------------------------------
Tabbed by: Karpassieni
Tuning: Standard

   Q   E   E   Q   E   E     Q    E   E   E   E   Q
e|-----4---4---------------|-4-----------------------|
B|-----5---5-------7---5---|------------------5------|
G|-------------------------|----------4--------------|
D|-------------------------|------6-------6-------6--|
A|-4-----------4-----------|-------------------------|
E|-------------------------|-0-----------------------|

   E  E  E  E  E  E   Q    Q   E   E   Q  E  E    Q  E  E  Q  E   E
e|-2--0-----2-----4------|-2---0---0------------|----9---------------|
B|-----------------------|-0---0---0------------|-------9------------|
G|-2--2-----2-----2------|-------------------1--|-------------11--9--|
D|-----------------------|----------------2-----|--------------------|
A|-0-----0-----0------0--|-------------2--------|--------------------|
E|-----------------------|-0--------------------|-9--------9---------|

   Q  E  E  E  E  Q    E  E  E  E  E  E  Q    Q  E  E  Q  E  E
e|-4-----------------|-2--0-----2-----4-----|-2--0--0-----4--2--|
B|-------------5-----|----------------------|-0--0--0-----------|
G|-------4-----------|-2--2-----2-----2-----|-------------------|
D|----6-----6-----6--|----------------------|-------------------|
A|-------------------|-0-----0-----0-----0--|----------2--------|
E|-0-----------------|----------------------|-0-----------------|

   Q  E  E  E  E  E  E   Q  E  E  E  E  Q    E  E  E  E  E  E  Q
e|-0-----------0--4--2-|-0-----------------|-2--0-----2-----4----|
B|---------------------|-------------0-----|---------------------|
G|-------2-------------|-------1-----------|-2--2-----2-----2----|
D|----2----------------|----------2--------|---------------------|
A|-0--------0----------|----2--------------|-0-----0-----0-----0-|
E|---------------------|-0--------------0--|---------------------|

   Q  E  E  Q  E  E   E  E  E  Q  Q.   E  E  E  Q  Q.  Q  Q  E  Q  E
e|-2--0--0----------|-5--4-----4--2--|-5--4-----4--2-|-4--4--4--2--7--|
B|-0--0--0----------|-3--3-----3--3--|-3--3-----3--3-|-4--4--4--4--7--|
G|----------------1-|-------------2--|-------------2-|----------------|
D|-------------2----|-0-----0--------|-0-----0-------|----------------|
A|----------2-------|----------------|---------------|-2--------------|
E|-0----------------|----------------|---------------|----------------|

   Q  Q  Q  Q    W
e|----4--2--0--|-------------|
B|----4--0--0--|-------------|
G|-------------|-------------|
D|-------4-----|-------------|
A|-------------|-------------|
E|-------------|-------------|
                                               ^  v
   E  E  E  E  E  E  E  E   E  E  E  Q   S  S  S  S  E
e|------------------------|--------------------0--0-----|
B|----------5--2-----0----|--------------------0--0-----|
G|-1--2--4--4--2-----2----|-------1--1---------1--1-----|
D|-2--4--6----------------|-4-----4--2------2--2--2-----|
A|-------------0--0-----0-|-2--------2---2-----2--2-----|
E|-0-----0----------------|----0-----0---------0--0--0--|

                                               ^  v
   E  E  E  E  E  E  E  E   E  E  E  Q   S  S  S  S  E
e|-------------------4----|-2-----0--0---------0--0-----|
B|----------5--2-----2----|-4--------0---------0--0-----|
G|-1--2--4--4--2----------|-4------------------1--1-----|
D|-2--4--6----------------|-----------------2--2--2-----|
A|-------------0--0-----0-|-2--2---------2-----2--2-----|
E|-0-----0----------------|----------0---------0--0--0--|

                                             ^  v
   E  E  E  E  E  E  E  E   E  E  E  Q   S  S  S  S  E
e|------------------------|--------------------0--0-----|
B|----------5--2-----0----|--------------------0--0-----|
G|-1--2--4--4--2-----2----|-------1--1---------1--1-----|
D|-2--4--6----------------|-4-----4--2------2--2--2-----|
A|-------------0--0-----0-|-2--------2---2-----2--2-----|
E|-0-----0----------------|----0-----0---------0--0--0--|

                                               ^  v
   E  E  E  E  E  E  E  E   E  E  E  Q   S  S  S  S  E
e|-------------------4----|-2-----0--0---------0--0-----|
B|----------5--2-----2----|-4--------0---------0--0-----|
G|-1--2--4--4--2----------|-4------------------1--1-----|
D|-2--4--6----------------|-----------------2--2--2-----|
A|-------------0--0-----0-|-2--2---------2-----2--2-----|
E|-0-----0----------------|----------0---------0--0--0--|

   Q  E. E  E  S  S  E.   E  E  E  S  E. S  S  Q
e|-0--------0-----0-h2--|-4-----------------------|
B|-2-----2--------------|-5--7--7--5--5--------5--|
G|-2--2--------2--------|-------------6-----6-----|
D|-2--------------------|----------------6--------|
A|-0--------------------|-4-----------------------|
E|----------------------|-------------------------|

   S  S  S  E  E. S  S  S  E  E.   E  E  S  E  S  E  E  E  E   W
e|-5--4-----4--2--5--4-----4--2--|-4--4--4--2--7-----4--2--0-|-------------|
B|-3--3-----3--3--3--3-----3--3--|-4--4--4--4--7-----4--0--0-|-------------|
G|-------------2--------------2--|---------------------------|-------------|
D|-0-----0--------0-----0--------|----------------------4----|-------------|
A|-------------------------------|-2-------------------------|-------------|
E|-------------------------------|---------------------------|-------------|

                                               ^  v
   E  E  E  E  E  E  E  E   E  E  E  Q   S  S  S  S  E
e|----------3--0----------|--------------------3--3-----|
B|-0--1--3--3--1-----3----|-------0--0---------0--0-----|
G|-0--0--0-----0-----0----|-2-----2--0---------0--0-----|
D|-0----------------------|-4--------0------0--0--0-----|
A|-------------3--3-----3-|-5--5---------2-----2--2-----|
E|-3-----3----------------|----------3---------3--3--3--|

                                                ^  v
   E  E  E  E  E  E  Q    E  S  S  E  Q   S  S  S  S  E
e|----------3--0-----7--|-5--------3--3---------3--3-----|
B|-0--1--3--3--1-----8--|-3-----3-----3---------3--3-----|
G|-0--0--0-----0-----9--|-5--5--------0---------0--0-----|
D|-0--------------------|-------------0------0--0--0-----|
A|-------------3--3-----|-------------2---2-----2--2-----|
E|-3-----3--------------|-------------3---------3--3--3--|

                                             ^  v
   E  E  E  E  E  E  E  E   E  E  E  Q   S  S  S  S  E
e|----------3--0----------|--------------------3--3-----|
B|-0--1--3--3--1-----3----|-------0--0---------0--0-----|
G|-0--0--0-----0-----0----|-2-----2--0---------0--0-----|
D|-0----------------------|-4--------0------0--0--0-----|
A|-------------3--3-----3-|-5--5---------2-----2--2-----|
E|-3-----3----------------|----------3---------3--3--3--|

                                                ^  v
   E  E  E  E  E  E  Q    E  S  S  E  Q   S  S  S  S  E
e|----------3--0-----7--|-5--------3--3---------3--3-----|
B|-0--1--3--3--1-----8--|-3-----3-----3---------3--3-----|
G|-0--0--0-----0-----9--|-5--5--------0---------0--0-----|
D|-0--------------------|-------------0------0--0--0-----|
A|-------------3--3-----|-------------2---2-----2--2-----|
E|-3-----3--------------|-------------3---------3--3--3--|

   E  E  E  E  E  E  E  E   E  E  E  E  E  S  S  E  E
e|------------------------|----------4-----2--0--2--0--|
B|----------5--2-----2----|----------5-----0--0--0--0--|
G|-1--2--4--4--2-----0----|-------1--------------------|
D|-2--4--6----------------|-4-----4--------------------|
A|-------------0--0-----0-|-2--------------------------|
E|-0-----0----------------|----0--------0--------0-----|

   E  E  E  E  E  E  E  E   E  E  E  E  E  E  E  E   E  E  E  E  E  E  E  E
e|-------------------4----|-2-----0--0--4--2--2--0-|------------------------|
B|----------5--2-----2----|-4--------0--5--0--0--0-|----------5--2-----2----|
G|-1--2--4--4--2----------|-4----------------------|-1--2--4--4--2-----0----|
D|-2--4--6----------------|------------------------|-2--4--6----------------|
A|-------------0--0-----0-|-2--2-------------------|-------------0--0-----0-|
E|-0-----0----------------|----------0--------0----|-0-----0----------------|

   E  E  E  Q   S  S  Q    E  E  E  E  E  E  E   E  E  E  Q  S  S  E  E
e|-----------------------|----------------4----|-2-----0--0-------------|
B|-----------------------|----------5--2--2----|-4--------0-------------|
G|-------1--1---------1--|-1--2--4--4--2-------|-4----------------------|
D|-4-----4--2------2--2--|-2--4--6-------------|----------------2-----2-|
A|-2--------2---2-----2--|-------------0-----0-|-2--2--------2----------|
E|----0-----0---------0--|-0-----0-------------|----------0--------0----|

   E  E  E  E  E  E  E  E   E  E  Q   Q  Q    S  H
e|-4--2--2--0-------------|-----------------|-----------------|
B|-5--0--0--0--5-----2----|-----------------|-----------------|
G|-------------4----------|-4---------------|-----------------|
D|------------------------|-4-----4--s6--4--|----2------------|
A|-------------4--4-----4-|-2--2---------6--|-----------------|
E|-0-----0----------------|-----------------|-0---------------|

Tap to rate this tab
 
# A B C D E F G H I J K L M N O P Q R S T U V W X Y Z