Song name
# A B C D E F G H I J K L M N O P Q R S T U V W X Y Z

Sunk Loto - Fall Apart tab

Help us improve GuitareTab! Take a short survey!
BAND:SUNK LOTO
SONG:FALL APART (TRACK 2)
ALBUM:BETWEEN BIRTH AND DEATH
TUNING:DROP C (C,G,C,F,A,D,)


* = PALM MUTE
~ = LET NOTE RING
} = DELAY COUNTS
/ = SLIDE
h = HAMMER ON
(5) = HARMONIC
^ = BEND NOTE

 THIS IS THE FIRST TAB FOR THIS SONG TOO,PLZ RATE IT.IT SHOULD BE 100%.



  INTRO
D------------------]---------------------------------]
A------------------]---------------------------------]
F------------------]-----3~----5-5555--4444444444----]
C--0~-FEEDBACK-----]-----3~----5-5555--4444444444----]
G--0~--------------]-----1~----3-3333--2222222222----]
C--0~--------------]--00-----------------------------]
                      **       


  VERSE
D----------------------------------------------------X2]
A------------------------------------------------------]
F-----------3---3-------3----3----5-55555--4444444444--]
C-----------3---3-------3----3----5-55555--4444444444--]
G-----------1---1-------1----1----3-33333--2222222222--]
C--1-4-0-0----0---0-000---00---------------------------]
                    ***        


   3RD TIME
D---------------------------------------------------------]
A---------------------------------------------------------]
F-----------3---3-------3----3----5-55555-----------------]
C-----------3---3-------3----3----5-55555---555555--------]
G-----------1---1-------1----1----3-33333---555555--------]
C--1-4-0-0----0---0-000---00----------------555555----/12-]
                    ***        



D---------------------------------]
A---------------------------------]
F---------------------------------]
C---------------------------------]
G---------1---1-------1---1-------]
C--1-4-00---0---0-000---0---------]




  CHORUS
D-------------------------------------------------X2]
A---------------------------------------------------]
F---------------------------------------------------]
C--9999999-0-1212121212121212--55555555-7777-8888---]
G--9999999-0-1212121212121212--55555555-7777-8888---]
C--9999999-0-1212121212121212--55555555-7777-8888---]



  INTERLUDE
D-----------------]-----------------]-------------------------]
A-----------------]-----------------]-------------------------]
F-----------------]-----------------]-------------------------]
C-----------------]-----------------]-------------------------]
G-----------------]-----------------]-------------------------]
C--4-1--0-1-0-00--]--4-1--0-1-0-00--]--4-1--0-1-0-0000000000--]
              **                **                **********

                                        W/WAH
D-----------------]-----------------]------------]
A-----------------]-----------------]------------]
F--------------3--]--------------3--]--3-333333--]
C--------------1--]--------------1--]--1-111111--]
G-----------------]-----------------]------------]
C--4-1--0-1-0-----]--4-1--0-1-0-----]------------]


   GTR 1
D-----------------------------------------------------------------------]
A-----------------------------------------------------6666666666666666--]
F-----------------------------------------------------5555555555555555--]
C-----------------------------------------------------3333333333333333--]
G--3333333333333333-0000000000000000-3333333333333333-------------------]
C--3333333333333333-0000000000000000-3333333333333333-------------------]
   **************** **************** ****************


D-----------------------------------------------------------------------]
A-----------------------------------------------------------------------]
F-----------------------------------------------------------------------]
C-----------------------------------------------------------------------]
G--3333333333333333-0000000000000000-3333333333333333-0000000000000000--]
C--3333333333333333-0000000000000000-3333333333333333-0000000000000000--]


  GTR 2 (SOLO)
                         LAST TIME WITH DELAY
D-----]---------------X4]--------------]
A--(5)]-5-8~-565-10^----]--10/-}}}}}}--]
F-----]-----------------]--------------]
C-----]-----------------]--------------]
G-----]-----------------]--------------]
C-----]-----------------]--------------]


  GTR1 (BEHIND SOLO)
D----------------X4]
A------------------]
F------------------]
C-----5~------7~---]
G--3--3~---0--5~---]
C--3-------0-------]


DIST SWELL
D-----]-------------------------------------------------------------------]
A-----]-------------------------------------------------------------------]
F-----]-------------------------------------------------------------------]
C--0--]----------------5555--------------------------5555-----------------]
G--0--]--333333-555555-3333-0000-7777-2222-3333-5555-3333-0000-7777-2222--]
C--0--]--333333-555555------0000-7777-2222-3333-5555------0000-7777-2222--]
                                                                    ****


D---------------------------------------------------]
A---------------------------------------------------]
F---------------------------------------------------]
C----------------5555--------------------------5555-]
G--333333-555555-3333-0000-7777-2222-3333-5555-3333-]
C--333333-555555------0000-7777-2222-3333-5555------]
                                                                    



  CHORUS
D-------------------------------------------------X2]
A---------------------------------------------------]
F---------------------------------------------------]
C--9999999-0-1212121212121212--55555555-7777-8888---]
G--9999999-0-1212121212121212--55555555-7777-8888---]
C--9999999-0-1212121212121212--55555555-7777-8888---]


THEN THIS

  GTR 1
D-----------------------------------------------------------------------]
A-----------------------------------------------------------------------]
F-----------------------------------------------------------------------]
C-----------------------------------------------------------------------]
G-----------------------------------------------------------------------]
C--999999-11-11-11-11-11-11-121212121212-777777-999999-4444-5555555555--]
   ****** ** ** ** ** ** ** ************ ****** ****** **** **********


D-----------------------------------------------------------------------]
A-----------------------------------------------------------------------]
F-----------------------------------------------------------------------]
C-----------------------------------------------------------------------]
G-----------------------------------------------------------------------]
C--9999999999999999-12121212121212121212121212121212-77777777-88888888--]
   **************** ******************************** ******** ********


 GTR 2 (SOLO BEHIND GTR 1 RIFF)

D--------14-------14-------14-------14-----------]
A--14h15----14h15----14h15----14h17----17-15-14--] (keep repeating)
F------------------------------------------------]
C------------------------------------------------]
G------------------------------------------------]
C------------------------------------------------]


  OUTRO
D----------------------------------------------------]
A----------------------------------------------------]
F----------------------------------------------------]
C------------------------------------------------1~--]
G--4-1--010-----4-1--010-----4-1-----1---1-------1~--]
C--4-1--010-00--4-1--010-00--4-1--00---0---0-000-1~--]
            **           **                  ***


 THE END.


 THATS ALL PLZ RATE.

 TABBED BY:TAB_MAN84
Related for Fall Apart tab