Guitaretab - guitar tabs
Song name
# A B C D E F G H I J K L M N O P Q R S T U V W X Y Z

Sunna - 7 Percent tab

Sunna -  One Minute Science - 7% - 2000

Tabbed by: Kyle

E-mail: xx_dark_xx@hotmail.com

Tuning: Standard

Key:
V: Downward Strum
^: Upward Strum  

Note: The little ^0 are not always there and is somewhat of an effect I put
them there to show you and help notice them 


 -Intro-

|--------|
|-----0--|
|--------|
|--0-----|
|--------|
|--------|

       -VERSE-

Am        C            F
I don't remember being dead
Am        C      F
I can't remember hell

      Am       C      F
     V  V  ^  V  V  ^ V    V^
e|---0--0--0--0--0--0-1----11---------------------------------------|
B|---1--1-----1--1----1----11---------------------------------------|
G|---2--2-----0--0----2----22---------------------------------------|
D|---2--2-----2--2----3----33---------------------------------------|
A|---0--0-----3--3--------------------------------------------------|
E|------------------------------------------------------------------|


Am        C      Em        Am
I donít remember heaven as well

     Am       C       Em     Am
     V  V  ^  V  V  ^ V V  ^ V V
e|---0--0--0--0--0--0-0-0--0-0-0------------------------------------|
B|---1--1-----1--1----0-0----1-1------------------------------------|
G|---2--2-----0--0----0-0----2-2------------------------------------|
D|---2--2-----2--2----2-2----2-2------------------------------------|
A|---0--0-----3--3----2-2----0-0------------------------------------|
E|--------------------0-0-------------------------------------------|

      C        F
But a familiar smell

      C       F   
     V  V  ^  V   
e|---0--0--0--1-----------------------------------------------------|
B|---1--1-----1-----------------------------------------------------|
G|---0--0-----2-----------------------------------------------------|
D|---2--2-----3-----------------------------------------------------|
A|---3--3-----------------------------------------------------------|
E|------------------------------------------------------------------|


       -CHORUS-
[ Tab from: http://www.guitaretab.com/s/sunna/44185.html ]
       F       C         Em         Am
If your feeling trust you know who I am
       F        C           Em      Am
To be real is a must that's me if i can
         F       C            Em     Am
When Iím feeling small it's a bigger land
         F        C          Em    Am
Where I try to remember as a child man

     F       C      Em     Am
     V V   ^ V V  ^ V V  ^ V V
e|---1-1--0--0-0--0-0-0--0-0-0------------------------------------|
B|---1-1-----1-1----0-0----1-1------------------------------------|
G|---2-2-----0-0----0-0----2-2------------------------------------|
D|---3-3-----2-2----2-2----2-2------------------------------------|
A|-----------3-3----2-2----0-0------------------------------------|
E|------------------0-0-------------------------------------------|


      -VERSE-

Am     C          F
Canned disease we buy
       Am           C        F
In the breeze we let others die
Am        C      Em     Am
Then with eas we go and buy
    C         F
The things we like


     -CHORUS-

       F       C         Em         Am
If your feeling trust you know who I am
       F        C           Em      Am
To be real is a must that's me if I can
         F       C            Em     Am
When Iím feeling small it's a better land
     F         C          Em    Am
So I try to remember as a child man
       F        C          Em    Am
Yes I try to remember as a child man


     -BRIDGE- 
**I do not know the name of the chords being used here or I would post them**

Know your brain is better then everything
We've got going wrong
And so with seven percent we fake
A world in secular survival
I don't like that at all
Be internal

     V V  ^  V V  ^ V V  ^ V V  ^ V V  ^ V V ^ V V
e|---1-1--0--5-5--0-4-4--0-3-3--0-7-7--0-5-5-0-3-3----------------------|
B|---1-1-----5-5----4-4----3-3----7-7----5-5---3-3----------------------|
G|---2-2-----6-6----5-5----4-4----8-8----6-6---4-4----------------------|
D|---3-3-----7-7----6-6----5-5----9-9----7-7---5-5----------------------|
A|---3-3-----7-7----6-6----5-5----9-9----7-7---5-5----------------------|
E|---1-1-----5-5----4-4----3-3----7-7----5-5---3-3----------------------|


   -CHORUS-

       F       C         Em         Am
If your feeling trust you know who i am
       F        C           Em      Am
To be real is a must that's me if I can
         F       C            Em     Am
When Iím feeling small it's a better land
     F         C          Em    Am
So I try to remember as a child man
       F        C          Em    Am
Yes I try to remember as a child man
Related for 7 Percent tab